Reveille - Butterfly Chords & Tabs

 

Butterfly Chords & Tabs

Reveille Chords & Tabs

Version: 2 Type: Bass Tab 0 ratings
1 star 2 stars 3 stars 4 stars 5 stars
comments

Butterfly Bass Tab

Reveille		Butterfly
Laced
Tabbed by: Ryan Landis

No bass on the intro.

Intro part 2:
G-------------------------------------------------------------
D-------------------------------------------------------------
A-------------------------------------------------------------
E---0-2222-00-3333-00-2222-00-33/6----------------------------

Verse:
G-------------------------------------------------------------
D-------------------------------------------------------------
A-------------------------------------------------------------
E--6--2--3-22-5-3--6--2--3-22-5-------------------------------
[ Tab from: http://www.guitartabs.cc/tabs/r/reveille/butterfly_btab_ver_2.html ]
Chorus:
G-------------------------------------------------------------
D-------------------------------------------------------------
A---6-5-6-5--6-5-6-5-0--3-2-3-2--6-5-6-5--6-5-6-5-0--3--------
E-------------------------------------------------------------

Bass Solo:
G-------------------------------------------------------------
D-------------------------------------------------------------
A-------------------------------------------------------------
E--0-00--7-77--3--6-66--2-22-3/5-0-00--7-77--3--6-66--2-22-3/5

Outro:
G-------------------------------------------------------------
D-------------------------------------------------------------
A-------------------------------------------------------------
E---0-0-6-0-5-0-6-8-10-10-0-0-6-0-5-0-6-5-3-0-----------------

As far as order and timing and all those handy little things, listen to the 
CD. Reveille kicks ass. Have fun!

staind667@hotmail.com   icq#10677836    AIM SN: staind667
Comments