Reuben Larlee - To The Self Chords & Tabs

 

To The Self Chords & Tabs

Reuben Larlee Chords & Tabs

Version: 1 Type: Tab 0 ratings
1 star 2 stars 3 stars 4 stars 5 stars
comments

To The Self Tab

   
To the Self

p = pull-off
h = hammer-on
/ = slide
^ = bend

GUITAR 1

Riff 

e---------------------------------
B---------------------------------
G---------------------------------
D---------------------------------
A---------------------------------
E-12-0-7-10-0-5-7-6-0-5-0-3-0-3-0-

Verse

e-----------------------------------     e-----------------------------------
B-----------------------------------     B-----------------------------------
G-----------------------------------     G-----------------------------------
D-2--2--2-2-2--2-2-7--7--7-5-5-5--5- x3  D-4--4--4-4-4--4-4--9-9-9-9-9-8-7-5-
A-2--2--2-2-2--2-2-7--7--7-5-5-5--5-     A-4--4--4-4-4--4-4--9-9-9-9-9-8-7-5-
E-0--0--0-0-0--0-0-5--5--5-3-3-3--3-     E-2--2--2-2-2--2-2--7-7-7-7-7-6-5-3-

Chorus

e--------------------------------     e--------------------------------
B--------------------------------     B--------------------------------
G--------------------------------     G--------------------------------
D-9-9-9---------5--5-5-5-5-5-5-5- x3  D-9-9-9-7-7-7-7------------------
A-7-7-7-7-7-7-7-3--3-3-3-3-3-3-3-     A-7-7-7-5-5-5-5-7--7-7-7-7-7-7-7-
E-------5-5-5-5------------------     E---------------5--5-5-5-5-5-5-5-

Outro

e----------------------------------------
B----------------------------------------
G----------------------------------------
D----------------------------------------
A--------------------------------------2-
E-12-0-10-15-0-12-10-0-7-0-6-0-5-0-3-0-0-

GUITAR 2
Chorus

e-----------------------------------------------------^---------
B---------------------------------------------12---12-10--------
G-----------12----------------15--------12-15------------12-9-7-
D-----12-14-------------14-17-------/14-------------------------
A-/14---------------/17-----------------------------------------
E---------------------------------------------------------------

Solo
[ Tab from: http://www.guitartabs.cc/tabs/r/reuben_larlee/to_the_self_tab.html ]
e---------------------------------------------------------------------------------------------------------------
B---------------------------------------------------------------------------------------------------------------
G-^---------------------^----------------------------------------------------------------------7--7h9p7---------
D-7-7-7p5p0---------5-7-7------5---7----9-7-5h7p5--------7p5p0---------------------------5-7/9----------5h7p5---
A-----------h7--5-7--------6-7---5----5-----------7-5-7--------7-7p5p0------------^--5-7----------------------7-
E----------------------------------------------------------------------3--0-3-5-6-6-----------------------------

e--------------------------------------------------------------------------------------------------------------------15-
B-----------------8---------------------^--------------------------------8-10-9--17-15-12-17p15p12-17p15p12-17p15p12----
G-------------7-9-----------------12-14-14-14-12---------------------7-9------------------------------------------------
D-----------5---------------12-14----------------14-12---------5-7/9----------------------------------------------------
A-7p5p0-5-7-----------12-14----------------------------14--5-7----------------------------------------------------------
E-----------------------------------------------------------------------------------------------------------------------

E-17p15p12-17p15p12-17p15p12-17p15p12-19p17p15-19p17p15-19p17p15-19p17p15-22p19p17-22p19p17-22p19p17-22p19p17-24-
B----------------------------------------------------------------------------------------------------------------
G----------------------------------------------------------------------------------------------------------------
D----------------------------------------------------------------------------------------------------------------
A----------------------------------------------------------------------------------------------------------------
E----------------------------------------------------------------------------------------------------------------


Das Playing order 
G1-(riff x4)-(verse x4)-(chorus x1)-(chorus x2)-(verse x4)-(chorus x2)-(chorus x2)-(verse x4)-(verse x4)-(chorus x4)-(outro)-end
G2-( pause )-(  pause )-(chorus x1)-(  pause  )-(  pause )-(chorus x2)-(chorus x2)-(  solo  )-(  pause )-(chorus x4)-(pause)-end
Comments