Reuben Larlee - Follow Me Chords & Tabs

 

Follow Me Chords & Tabs

Reuben Larlee Chords & Tabs

Version: 1 Type: Tab 1 rating
1 star 2 stars 3 stars 4 stars 5 stars
comments

Follow Me Tab

   

GUITAR
Intro

e-0--1--3--6--5----------------------------1-3-1-----------0-1-------------1-3-0----------5-6-----6-8-
B----------------6--5-3-5--3--2--3-------3-------3-------1-----1---------3-------3-1----6-------8-----
G--------------------------------------2-----------2---2---------2-0---2--------------7-------9-------
D------------------------------------3---------------2---------------0--------------------------------
A----------------0------------------------------------------------------------------------------------
D-------------0---------5--3--2--0--------------------------------------------------------------------

e----------------------------------1-
B-------1-3-1----------------------3-
G-----2-------3-2-0-2---0----------2-
D---2-----------------3---3-2-0----0-
A-0-----------------------------4--0-
D----------------------------------0-

Verse 1 (use chorus pedal effect)

e---------------------------------
B---------------------------------
G-----2-------2-------2-------2---
D---3---3---3---3---3---3---3---3-
A---------3-------2-------1-------
D-0-------------------------------

Verse 2

e-------------------------------------------------------------
B-------------------------------------------------------------
G-------------------------------------------------------------
D-3-3-3-3-3-3-3-3-3--7--7--7-7-7-7-7-7-7--2-2-2-2-2-2-2-2-2-2-
A-5-5-5-5-5-5-5-5-5--8--8--8-8-8-8-8-8-8--3-3-3-3-3-3-3-3-3-3-
D-0-0-0-0-0-0-0-0-0--8--8--8-8-8-8-8-8-8--3-3-3-3-3-3-3-3-3-3-

Chorus
[ Tab from: http://www.guitartabs.cc/tabs/r/reuben_larlee/follow_me_tab.html ]
e-----------------------------------------------------------------
B-----------------------------------------------------------------
G-----------------------------------------------------------------
D-7-7-7-7-7-7-7-7-5-5-5-5-5-5-5-3-5-5-5-5-5-5-5-5-8-8-8-8-8-8-8-8-
A-5-5-5-5-5-5-5-5-3-3-3-3-3-3-3-3-5-5-5-5-5-5-5-5-8-8-8-8-8-8-8-8-
D-0-0-0-0-0-0-0-0-3-3-3-3-3-3-3-3-5-5-5-5-5-5-5-5-8-8-8-8-8-8-8-8-

e-----------------------------------------------------------------
B-----------------------------------------------------------------
G-----------------------------------------------------------------
D-7-7-7-7-7-7-7-7-5-5-5-5-5-5-5-5-5-5-5-5-5-5-5-5-3-3-3-3-3-3-3-3-
A-5-5-5-5-5-5-5-5-3-3-3-3-3-3-3-3-5-5-5-5-5-5-5-5-3-3-3-3-3-3-3-3-
D-0-0-0-0-0-0-0-0-3-3-3-3-3-3-3-3-5-5-5-5-5-5-5-5-3-3-3-3-3-3-3-3-


BASS
Verse

G----------------------------------------------------------------------------
D----------------------------------------------------------------------------
A----------------------------------------------------------------------------
D-0-0-0-0-0-0-0-0--10-10-10-10-10-10-10-10--9-9-9-9-9-9-9-9--8-8-8-8-8-8-8-8-

Verse 2

G---------------------------------
D---------------------------------
A-3-5-5-5-3-5-5-5-0-3-3-3---------
D-------------------------0-3-3-3-



Chorus

G----------------------
D--------------3-5-3---
A-5--5-5-5-3-5-------3-
D----------------------


....AND the playing order...

G-(Intro)-(  pause  )-(Verse1 x6)-(Chorus x2)-(Verse1 x2)-(Verse2 x2)-
B-(pause)-(Verse1 x2)-(Verse1 x6)-(Chorus x2)-(Verse1 x2)-(verse2 x2)-

(Chorus x4)-(Verse2 x2)-(Verse1 x2)-(Chorus x4)-(  pause  )-end
(Chorus x4)-(Verse2 x2)-(Verse1 x2)-(Chorus x4)-(Verse1 x2)-end
Comments