Reuben - Tonight My Wife Is Your Wife Chords & Tabs

 

Tonight My Wife Is Your Wife Chords & Tabs

Reuben Chords & Tabs

Version: 1 Type: Tab 0 ratings
1 star 2 stars 3 stars 4 stars 5 stars
comments

Tonight My Wife Is Your Wife Tab

Song: Tonight my wife is your wife
Band: Reuben
Album: Racecar is racecar backwards
Tabber: Daniel King
Email: neo8549@hotmail.com

*If you have used this tab please rate
*This song is in Drop D a futher half step down

Intro

Eb|------------------------------------------|
Bb|------------------------------------------|
Gb|--14---14---14---14---14---14---14---14---|
Db|-----0----0----0----0----0----0----0----0-|
Ab|------------------------------------------|
Db|------------------------------------------|

Eb|------------------------------------------|
Bb|------------------------------------------|
Gb|--14---14---13-----7--14---14---13-----7--|
Db|-----0----0----0-9-------0----0----0-9----|
Ab|------------------------------------------|
Db|------------------------------------------|

Eb|------------------------------------------|
Bb|------------------------------------------|
Gb|--16---16---16---16---16---16---18---18---|
Db|-----0----0----0----0----0----0----0----0-|
Ab|------------------------------------------|
Db|------------------------------------------|

Eb|------------------------------------------|
Bb|------------------------------------------|
Gb|--14---14---13-----7--14---14---13-----7--|
Db|-----0----0----0-9-------0----0----0-9----|
Ab|------------------------------------------|
Db|------------------------------------------|

Verse

Eb|-----------------------------------------|
Bb|-----------------------------------------|
Gb|-----------------------------------------|
Db|--9-9-9-9-9-9-9-9--2-2-2-2-2-2-2-2-------|
Ab|--9-9-9-9-9-9-9-9--2-2-2-2-2-2-2-2-------| *2
Db|--9-9-9-9-9-9-9-9--2-2-2-2-2-2-2-2-------|

Eb|-----------------------------------------|
Bb|-----------------------------------------|
Gb|------------------------7-7-7-7-7-7-7-7--|
Db|--8-8-8-8--10-10-10-10--7-7-7-7-7-7-7-7--|
Ab|--8-8-8-8--10-10-10-10--5-5-5-5-5-5-5-5--| *4
Db|--8-8-8-8--10-10-10-10--0-0-0-0-0-0-0-0--|

Eb|------------------------------------------|
Bb|------------------------------------------|
Gb|--14---14---13---13---14---14---13---13---|
Db|-----0----0----0----0----0----0----0----0-|
Ab|------------------------------------------|
Db|------------------------------------------|

Eb|------------------------------------------|
Bb|------------------------------------------|
Gb|--14---14---13-----7--14---14---13-----7--|
Db|-----0----0----0-9-------0----0----0-9----|
Ab|------------------------------------------|
Db|------------------------------------------|
[ Tab from: http://www.guitartabs.cc/tabs/r/reuben/tonight_my_wife_is_your_wife_tab.html ]
Eb|--------------------------------------------|
Bb|-------------------12-12-12-12-12-12-12-12--|
Gb|--4-4-4-4-4-4-4-4---------------------------|
Db|-------------------9--9--9--9--9--9--9--9---|
Ab|--2-2-2-2-2-2-2-2---------------------------| *2
Db|--------------------------------------------|

Eb|-----------------------------------------|
Bb|-----------------------------------------|
Gb|-----------------------------------------|
Db|--0-2-2-2-2-2-2-2-2-2-2-2-2-2-2-2-2------|
Ab|--0-2-2-2-2-2-2-2-2-2-2-2-2-2-2-2-2------|
Db|--0-2-2-2-2-2-2-2-2-2-2-2-2-2-2-2-2------|

(Bass)

Eb|-----------------------------------------|
Bb|-----------------------------------------|
Gb|-----------------------------------------|
Db|-----------------------------------------|
Ab|--4-/-5-5-5-5--5-/-4-7p4-5p4-------------| *4
Db|-----------------------------------------|

Eb|-----------------------------------------|
Bb|-----------------------------------------|
Gb|-----------------------------------------|
Db|------------------------7-7-7-7-----7----|
Ab|--8-8-8-8--10-10-10-10--5-5-5-5---5------| *4
Db|--8-8-8-8--10-10-10-10--0-0-0-0-0-----0--|

Eb|------------------------------------------|
Bb|------------------------------------------|
Gb|--14---14---13---13---14---14---13---13---|
Db|-----0----0----0----0----0----0----0----0-|
Ab|------------------------------------------|
Db|------------------------------------------|

Eb|------------------------------------------|
Bb|------------------------------------------|
Gb|--14---14---16---16---18---18---19---21---|
Db|-----0----0----0----0----0----0----0----0-|
Ab|------------------------------------------|
Db|------------------------------------------|

Eb|-----------------------------------------|
Bb|---------12------14------10--------------|
Gb|--4------x--(*8)----(*8)---(*8)----------|
Db|--x-(*8)-9-------11------7---------------|
Ab|--2--------------------------------------|
Db|-----------------------------------------|

Eb|-----------------------------------------|
Bb|-----------------------------------------|
Gb|-----------------------------------------|
Db|--0-2-2-2-2-2-2-2-2-2-2-2-2-2-2-2-2------|
Ab|--0-2-2-2-2-2-2-2-2-2-2-2-2-2-2-2-2------|
Db|--0-2-2-2-2-2-2-2-2-2-2-2-2-2-2-2-2------|

Eb|-----------------------------------------|
Bb|-----------------------------------------|
Gb|------------------------7-7-7-7-7-7-7-7--|
Db|--8-8-8-8--10-10-10-10--7-7-7-7-7-7-7-7--|
Ab|--8-8-8-8--10-10-10-10--5-5-5-5-5-5-5-5--| *4
Db|--8-8-8-8--10-10-10-10--0-0-0-0-0-0-0-0--|

Eb|-----------------------------------------|
Bb|-----------------------------------------|
Gb|-----------------------------------------|
Db|--4-4-4-4--4-4-4-4--2-2-2-2--2-2-2-2-----|
Ab|--2-2-2-2--2-2-2-2--2-2-2-2--2-2-2-2-----|
Db|--0-0-0-0--0-0-0-0--2-2-2-2--2-2-2-2-----|
Comments