Reuben - Some Mothers Do Ave Em Chords & Tabs

 

Some Mothers Do Ave Em Chords & Tabs

Reuben Chords & Tabs

Version: 1 Type: Bass Tab

Some Mothers Do Ave Em Bass Tab

   
Reuben - Some Mothers Do Have ‘Em
Album - Very Fast Very Dangerous
Tuning - C# G# C# F#

Intro
F#:----------|
C#:----------|
G#:--5-------|
C#:----------|

Verse X3
F#:----------------------|
C#:----------------------|
G#:-5-5-5-5-5-5-------3--|x3
C#:-------------7-6-5----|

F#:-------------------------|
C#:-------------------------|
G#:--5-5-5-5-5-5------------|x1
C#:--------------3-5-5-3-3--|


Chorus  X2
F#:------------------------------------------------------------------|
C#:------------------------------------------------------------------|
G#:-----------------3-3-3-3-3-3-3-3-----------------3-3-3-3-3-3-3-3--|
C#:-3-3-3-3-3-3-3-3-----------------3-3-3-3-3-3-3-3------------------|

F#:------------------------------------------------------------------|
C#:------------------------------------------------------------------|
G#:-----------------3-3-3-3-3-3-3-3-----------------3-3-3-3-3-3-3-3--|
C#:-0-0-0-0-0-0-0-0-----------------0-0-0-0-0-0-0-0------------------|

Verse X3
F#:------------------------|
C#:------------------------|
G#:-5-5-5-5-5-5---------3--|x3
C#:-----------------7-6-5--|

F#:----------------------------|
C#:----------------------------|
G#:--5-5-5-5-5-5---------------|x1
C#:-----------------3-5-5-3-3--|


Chorus  X2
F#:------------------------------------------------------------------|
C#:------------------------------------------------------------------|
G#:-----------------3-3-3-3-3-3-3-3-----------------3-3-3-3-3-3-3-3--|
C#:-3-3-3-3-3-3-3-3-----------------3-3-3-3-3-3-3-3------------------|

F#:------------------------------------------------------------------|
C#:------------------------------------------------------------------|
G#:-----------------3-3-3-3-3-3-3-3-----------------3-3-3-3-3-3-3-3--|
C#:-0-0-0-0-0-0-0-0-----------------0-0-0-0-0-0-0-0------------------|
After 2nd time round keep playin this
F#:------------------------------------------------------------------|
C#:------------------------------------------------------------------|
G#:-----------------3-3-3-3-3-3-3-3-----------------3-3-3-3-3-3-3-3--|
C#:-0-0-0-0-0-0-0-0-----------------0-0-0-0-0-0-0-0------------------|
[ Tab from: http://www.guitartabs.cc/tabs/r/reuben/some_mothers_do_ave_em_btab.html ]
Then bass solo!
F#:--------------------------------|
C#:--------------------------------|
G#:-5-5-5-5-5-5-5-3-0--------------|
C#:-------------------5-0-0-0-0-0--|

Heavy bit X4
F#:--------------------------------------------|
C#:--------------------------------------------|
G#:--------------------------------------------|
C#:-2-0-2-0-2-0-2-0-2-0-5-2-0-2-0-0-0-0-0-1-2--|

My mother says  she loves me X8
F#:-----------------------|
C#:-----------------------|
G#:--0--------------------|
C#:-----2--3--5--3--2--3--|

Verse X3
F#:--------------------------|
C#:--------------------------|
G#:-----------------------3--|X3
C#:-0-0-0-0-0-0-7-6-5--------|

F#:-------------------------|
C#:-------------------------|
G#:--5-5-5-5-5-5------------|x1
C#:--------------3-5-5-3-3--|

Chorus
F#:------------------------------------------------------------------|
C#:------------------------------------------------------------------|
G#:-----------------3-3-3-3-3-3-3-3-----------------3-3-3-3-3-3-3-3--|
C#:-3-3-3-3-3-3-3-3-----------------3-3-3-3-3-3-3-3------------------|

F#:------------------------------------------------------------------|
C#:------------------------------------------------------------------|
G#:-----------------3-3-3-3-3-3-3-3-----------------3-3-3-3-3-3-3-3--|
C#:-0-0-0-0-0-0-0-0-----------------0-0-0-0-0-0-0-0------------------|

Octave bit
F#:------------------------------------------------------------------------|
C#:----3-------------------------------------------------------------------|
G#:----3------------------3-3-3-3-3-3-3-3-----------------3-3-3-3-3-3-3-3--|
C#:-3--3--0-0-0-0-0-0-0-0-----------------0-0-0-0-0-0-0-0------------------|

Chorus X4
F#:------------------------------------------------------------------|
C#:------------------------------------------------------------------|
G#:-----------------3-3-3-3-3-3-3-3-----------------3-3-3-3-3-3-3-3--|
C#:-3-3-3-3-3-3-3-3-----------------3-3-3-3-3-3-3-3------------------|

F#:------------------------------------------------------------------|
C#:------------------------------------------------------------------|
G#:-----------------3-3-3-3-3-3-3-3-----------------3-3-3-3-3-3-3-3--|
C#:-0-0-0-0-0-0-0-0-----------------0-0-0-0-0-0-0-0------------------|

The last I don’t respect myself
F#:----------------------------|
C#:----------------------------|
G#:----------------------------|
C#:-0-0-0-0-0-0-0-0-1-3-5-7-7--|