Reuben - Moving To Backwater Chords & Tabs

 

Moving To Backwater Chords & Tabs

Reuben Chords & Tabs

Version: 1 Type: Tab 0 ratings
1 star 2 stars 3 stars 4 stars 5 stars
comments

Moving To Backwater Tab

   
=Reuben=
Moving To Backwater

Main Riff

e|---------------------------------------------------------------|
b|---------------------------------------------------------------|
G|---------------------------------------------------------------|
D|---------------------------------------------------------------|
A|---------4-6-------------4-6------------4-6------------4-6-4-3-|
D|-8-8-8-8-------7-7-7-7-7------6-6-6-6-6------5-5-5-5-5---------|


1st Verse

  <----------bass part tabbed for guitar------------->

e|----------------------------------------------------|-----|
b|----------------------------------------------------|-----|
G|----------------------------------------------------|-8-8-|
D|----------------------------------------------------|-----|
A|----------------------------------------------------|-6-6-|
D|-8-8-8-8-8---3-3-3-3-3---11-11-11-11-11---1-1-1-1-1-|-----|
                                                       add this on second time
  x2


e|----------------------------------------------------|
b|----------------------------------------------------|
G|----------------------------------------------------|
D|-8-8-8-8-8---3-3-3-3-3---11-11-11-11-11---1-1-1-1-1-|
A|-8-8-8-8-8---3-3-3-3-3---11-11-11-11-11---1-1-1-1-1-|
D|-8-8-8-8-8---3-3-3-3-3---11-11-11-11-11---1-1-1-1-1-|

  <---------------------palm muted------------------->


1st Chorus

e|---------------------------------|
b|---------------------------------|
G|-6-6-6-6-6-6-6-6-8-8-8-8-8-8-8-8-|
D|-6-6-6-6-6-6-6-6-8-8-8-8-8-8-8-8-|
A|-4-4-4-4-4-4-4-4-6-6-6-6-6-6-6-6-|
D|---------------------------------|

  x 2


2nd Verse

e|----------------------------------------------------|
b|----------------------------------------------------|
G|----------------------------------------------------|
D|-8-8-8-8-8---3-3-3-3-3---11-11-11-11-11---1-1-1-1-1-|
A|-8-8-8-8-8---3-3-3-3-3---11-11-11-11-11---1-1-1-1-1-|
D|-8-8-8-8-8---3-3-3-3-3---11-11-11-11-11---1-1-1-1-1-|

  <---------------------palm muted------------------->

[ Tab from: http://www.guitartabs.cc/tabs/r/reuben/moving_to_backwater_tab.html ]
e|-----------------------------------------------------------------|
b|-----------------------------------------------------------------|
G|-----------------------------------------------------------------|
D|-8-8-8-8---------7-7-7-7---------6-6-6-6---------5-5-5-5---------|
A|-8-8-8-8-4-6-8---7-7-7-7-4-6-8---6-6-6-6-4-6-8---5-5-5-5-4-6-4-3-|
D|-8-8-8-8---------7-7-7-7---------6-6-6-6---------5-5-5-5---------|

e|-----------------------------------------------------------------|
b|-----------------------------------------------------------------|
G|-----------------------------------------------------------------|
D|-8-8-8-8---------7-7-7-7---------6-6-6-6---------5-5-5-5-5-5-5-5-|
A|-8-8-8-8-4-6-8---7-7-7-7-4-6-8---6-6-6-6-4-6-8---5-5-5-5-5-5-5-5-|
D|-8-8-8-8---------7-7-7-7---------6-6-6-6---------5-5-5-5-5-5-5-5-|

2nd Chorus

e|---------------------------------|
b|---------------------------------|
G|-6-6-6-6-6-6-6-6-8-8-8-8-8-8-8-8-|
D|-6-6-6-6-6-6-6-6-8-8-8-8-8-8-8-8-|
A|-4-4-4-4-4-4-4-4-6-6-6-6-6-6-6-6-|
D|---------------------------------|

 x 3

e|-------------------------------------------------|
b|-------------------------------------------------|
G|-10-10-10-10-10-10-10-10-10-10-10-10-10-10-10-10-|
D|-10-10-10-10-10-10-10-10-10-10-10-10-10-10-10-10-|
A|-8--8--8--8--8--8--8--8--8--8--8--8--8--8--8--8--|
D|-------------------------------------------------|

bridge

e|-------------------------------------------|
b|-------------------------------------------|
G|-------------------------------------------|
D|-3-3-3-3---1-1-1-1---1-1-1-1---1-1-1-3-4-1-|
A|-3-3-3-3---1-1-1-1---1-1-1-1---1-1-1-3-4-1-|
D|-3-3-3-3---1-1-1-1---1-1-1-1---1-1-1-3-4-1-|

 x 4

outro

e|---------------------------------|
b|---------------------------------|
G|-6-6-6-6-6-6-6-6-8-8-8-8-8-8-8-8-|
D|-6-6-6-6-6-6-6-6-8-8-8-8-8-8-8-8-|
A|-4-4-4-4-4-4-4-4-6-6-6-6-6-6-6-6-|
D|---------------------------------|

e|-------------------------------------|---------------------------|
b|-------------------------------------|---------------------------|
G|-10-10-10-10-10-10-10-10-------------|---------------------------|
D|-10-10-10-10-10-10-10-10-4-4-5---6-6-|-4-4-5---6-6---4-4-5---6-6-|
A|-8--8--8--8--8--8--8--8--4-4-5---6-6-|-4-4-5---6-6---4-4-5---6-6-|
D|-------------------------4-4-5---6-6-|-4-4-5---6-6---4-4-5---6-6-|

 x 4                                   |----------4th time---------|
Comments