Reuben - Kick In The Mouth Chords & Tabs

 

Kick In The Mouth Chords & Tabs

Reuben Chords & Tabs

Version: 1 Type: Bass Tab

Kick In The Mouth Bass Tab

   
Reuben - Kick In The Mouth
Album - Very Fast Very Dangerous
Tuning - B F# B E
Theres only 2 songs on this album that I havent
tabbed, ill do those soon. meanwhile enjoy the
ones i posted!
[ Tab from: http://www.guitartabs.cc/tabs/r/reuben/kick_in_the_mouth_btab.html ]
Verse
E :-------------------------------|
B :-------------------------------|
F#:----5-----5--------------------|
B :--0---0-0---0-3-3-5-3-5-3-0----|

Chorus
E :------------------------------------------------|
B :------------------------------------------------|
F#:-2-2-2-2-2-2-2-2-4-4-4-4------------------------|
B :-------------------------3-3-3-3-3-3-3-3-0-0-0--|