Reuben - Horror Show Chords & Tabs

 

Horror Show Chords & Tabs

Reuben Chords & Tabs

Version: 1 Type: Tab 0 ratings
1 star 2 stars 3 stars 4 stars 5 stars
comments

Horror Show Tab

Song: Horror show
Band: Reuben
Album: Racecar is racecar backwards
Tabber: Daniel King
Email: neo8549@hotmail.com

*If you have used this tab please rate
*This song is in Drop D a futher half step down

Intro

Eb|---------------|
Bb|---------------|
Gb|---------------|
Db|--7--4---4-6---|
Ab|---------------| *6
Db|-------4-------|

Eb|--------------------|
Bb|--------------------|
Gb|--------------------|
Db|--11--11---12--11---|
Ab|--12--11---12--12---| *2
Db|--------------------|

Eb|----------------------------------------|
Bb|--------7-------7--------7--------7-----|
Gb|------6-------6--------6--------6-------|
Db|--4-4-----4-4------4-4------4-4---------|
Ab|----------------------------------------| *2
Db|----------------------------------------|

Eb|--------------------|
Bb|--------------------|
Gb|--------------------|
Db|--7--4---4--4-/-6---|
Ab|--------------------| *12
Db|--7----4----4-/-6---|

Eb|-----------------------------------------|
Bb|-----------------------------------------|
Gb|-----------------------------------------|
Db|--4-4-4-4--4-4-4-4--4-4-4-4--2-2-2-2-----|
Ab|-----------------------------------------| *4
Db|--4-4-4-4--2-2-2-2--4-4-4-4--2-2-2-2-----|
[ Tab from: http://www.guitartabs.cc/tabs/r/reuben/horror_show_tab.html ]
Eb|-----------------------------------------|
Bb|-----------------------------------------|
Gb|-----------------------------------------|
Db|--4-4-4-4--4-4-4-4--4-4-4-4--2-2-2-2-----|
Ab|--4-4-4-4--2-2-2-2--4-4-4-4--2-2-2-2-----| *4
Db|--4-4-4-4--2-2-2-2--4-4-4-4--2-2-2-2-----|

Eb|-----------------------------------------|
Bb|-----------------------------------------|
Gb|--13--13--13-13---13--13--13-13----------|
Db|--14--14--14-14---14--14--14-14----------|
Ab|-----------------------------------------| *4
Db|-----------------------------------------|

Eb|-----------------------------------------|
Bb|-----------------------------------------|
Gb|-------13------13------13-------13-------|
Db|--12-12---12-12---12-12---12--12---------|
Ab|-----------------------------------------|
Db|-----------------------------------------|

Eb|-----------------------------------------|
Bb|-----------------------------------------|
Gb|-----------------------------------------|
Db|-------13------13------13-------13-------|
Ab|--11-11---12-12---11-11---12--12---------|
Db|-----------------------------------------|

Eb|-----------------------------------------|
Bb|-----------------------------------------|
Gb|--13--13--13-13--------------------------|
Db|--14--14--14-14---12-12--4~--------------|
Ab|------------------12-12--4~--------------|
Db|------------------12-12--4~--------------|

Eb|--------------------|
Bb|--------------------|
Gb|--------------------|
Db|--11--11---12--11---|
Ab|--12--11---12--12---| *8
Db|--------------------|
Comments