Reuben - Freddy Krueger Chords & Tabs

 

Freddy Krueger Chords & Tabs

Reuben Chords & Tabs

Version: 1 Type: Tab 0 ratings
1 star 2 stars 3 stars 4 stars 5 stars
comments

Freddy Krueger Tab

written by jamie lenham, jon pearce and guy davis
i play this song in standard tuning:
submitted by tom collins, aldershot 1/9/04
p.s. they played a great set at k! day of rock this year

e-----------------------------------/
b-----------2-4-------------4---6---/
g-33--33--34------33---33-----3---3-/ opening riff x2
d---4---4-----------4----4----------/
a-----------------------------------/
e-----------------------------------/

"this is for my band the ones who shared the struggle....

e----------------/
b----------------/
g----------------/ muted
d-444444444444---/
a-444444444444---/
e-222222222222---/


"...the whining and the bitching"

e----------------------/
b-44444444---4---6-----/
g-33333333-----3---3---/
d-11111111-------------/
a--muted---------------/
e----------------------/

"sat on my sofa, my friends all went to college...."

e----------------/
b----------------/
g----------------/ muted
d-444444444444---/
a-444444444444---/
e-222222222222---/

"...i still live in my dads house"


e----------------------/
b-44444444----44-------/
g-33333333----33-------/
d-11111111-------------/
a--muted---------------/
e----------------------/

"thinking about it and though you may regret it..."

e----------------/
b----------------/
g----------------/ muted
d-444444444444---/
a-444444444444---/
e-222222222222---/

"...you said it cos you meant it"

e----------------------/
b-44444444---4---6-----/
g-33333333-----3---3---/
d-11111111-------------/
a--muted---------------/
e----------------------/

"alwayts together, a touch of cabin fever..."


e----------------/
b----------------/
g----------------/ muted
d-444444444444---/
a-444444444444---/
e-222222222222---/
[ Tab from: http://www.guitartabs.cc/tabs/r/reuben/freddy_krueger_tab.html ]
"...you find out how we really feel!"

e----------------------/
b-44444444----44-------/
g-33333333----33-------/
d-11111111-------------/
a--muted---------------/
e----------------------/

chorus:
"this girl that im sick of,this girl that im sick of "

e------------------------------------/
b------------------------------------/
g-6666666666666-33-4444444444444444--/
d-6666666666666-33-4444444444444444--/
a-4444444444444-11-2222222222222222--/
e------------------------------------/

"...this girl that im so sick of"

e------------------------------------/
b------------------------------------/
g-6666666666666-33-44-4-4------------/
d-6666666666666-33-44-4-4-let ring---/
a-4444444444444-11-22-2-2------------/
e------------------------------------/


e-----------------------------------/
b-----------2-4-------------4---6---/
g-33--33--34------33---33-----3---3-/ opening riff x1
d---4---4-----------4----4----------/
a-----------------------------------/
e-----------------------------------/

then......

e------------------------------/
b------------2-4-s-6-s-4b------/
g-33--33--34--------------3b---/
d---4---4----------------------/
a------------------------------/
e------------------------------/

"when i was 15, i swear it looked so easy, you go out and you get paid,
cuts you an lp, then slam it on the tv, and its another day down, and its another
month gone, god knows how many shows, we still keep moving on and on, well thats
rock and roll i spose"

"my name is freddy krueger, and ive got the elm street blues, ive got a hand like a
knife rack, and i die in every film"

e-----------------/
b----77-----------/
g-6--66-888-8/----/
d-6--44-888--8----/
a-4-----666----6--/
e-----------------/

end chord:
e----/
b----/
g-8--/ 
d-8--/ let ring
a-6--/
e----/
Comments