Reuben - Freddy Kreuger Chords & Tabs

 

Freddy Kreuger Chords & Tabs

Reuben Chords & Tabs

Version: 1 Type: Tab 0 ratings
1 star 2 stars 3 stars 4 stars 5 stars
comments

Freddy Kreuger Tab

   
www.wordsfromreuben.com From England

Band: Reuben
Song: Freddy Kreuger
Written by: Jamie Lehnman
Tabber: Justboy57 (rivalschools2003@aol.com)

Here's Reuben's new single called 'freddy kreuger' thats out This May, so go buy it
because its really really good! I think this is pretty correct, I saw them at an acoustic
show and this is how Jamie played it.

Intro:
e|-----------------------------------------------------|
B|------------------------4----------------------------|
G|--3-3--0--3-3--0--3-4-6---3-3--0--3-3--0--8-0--10-0--|
D|-----------------------------------------------------|
A|-----------------------------------------------------|
E|-----------------------------------------------------|

e|-----------------------------------------------|
B|------------------------4----------------------|
G|--3-3--0--3-3--0--3-4-6---3-3--0--3-3--0--9-9--|
D|------------------------------------------9-9--|
A|------------------------------------------x-x--|
E|-----------------------------------------------|

e|-----------|-----|
B|-----------|-----|
G|-8-0--10-0-|-9-9-| x2
D|-----------|-9-9-|
A|-----------|-x-x-|
E|-----------|-----|

Chorus:
e|-----------------------------------------------------------------|
B|-----------------------------------------------------------------|
G|-6-6-6-6-6-6-6-6-6-6-6-6-6-3-3-3-4-4-4-4-4-4-4-4-4-4-4-4-4-4-4-4-| Repeat
D|-6-6-6-6-6-6-6-6-6-6-6-6-6-3-3-3-4-4-4-4-4-4-4-4-4-4-4-4-4-4-4-4-|
A|-4-4-4-4-4-4-4-4-4-4-4-4-4-1-1-1-2-2-2-2-2-2-2-2-2-2-2-2-2-2-2-2-|
E|-----------------------------------------------------------------|
[ Tab from: http://www.guitartabs.cc/tabs/r/reuben/freddy_kreuger_tab.html ]
Pre-verse:
e|-------------------------------------------------------|
B|------------------------4------------------------------|
G|--3-3--0--3-3--0--3-4-6---3-3--0--3-3--0--8-0-10h11h6--|
D|-------------------------------------------------------|
A|-------------------------------------------------------|
E|-------------------------------------------------------|

e|-----------------------------------------------|
B|-----------------------------------------------|
G|--3-3--0--3-3--0--3-4-6--8--/10--8--3-9-9------|
D|--------------------------------------9-9------|
A|--------------------------------------x-x------|
E|-----------------------------------------------|

Verse:
e|-6---6---6---6---6---6---6---6---
B|---7---7---7---7---7---7---7---7-
G|---------------------------------
D|--------------------------------- you get the jist...
A|---------------------------------
E|---------------------------------

Chorus:
e|-----------------------------------------------------------------
B|-----------------------------------------------------------------
G|-6-6-6-6-6-6-6-6-6-6-6-6-6-3-3-3-4-4-4-4-4-4-4-4-4-4-4-4-4-4-4-4- repeat
D|-6-6-6-6-6-6-6-6-6-6-6-6-6-3-3-3-4-4-4-4-4-4-4-4-4-4-4-4-4-4-4-4-
A|-4-4-4-4-4-4-4-4-4-4-4-4-4-1-1-1-2-2-2-2-2-2-2-2-2-2-2-2-2-2-2-2-
E|-----------------------------------------------------------------

Bridge:
e|-4----1--2--------4----1--2-
B|-4----1--2--------4----1--2-
G|-6----3--4--------6----3--4-
D|-6----3--4--------6----3--4-
A|------------4-3-1-----------
E|------------4-3-1-----------
My name is Freddy kreuger

Chorus:
e|-----------------------------------------------------------------
B|-----------------------------------------------------------------
G|-6-6-6-6-6-6-6-6-6-6-6-6-6-3-3-3-4-4-4-4-4-4-4-4-4-4-4-4-4-4-4-4- repeat
D|-6-6-6-6-6-6-6-6-6-6-6-6-6-3-3-3-4-4-4-4-4-4-4-4-4-4-4-4-4-4-4-4-
A|-4-4-4-4-4-4-4-4-4-4-4-4-4-1-1-1-2-2-2-2-2-2-2-2-2-2-2-2-2-2-2-2-
E|-----------------------------------------------------------------


Outro:
e|-------------------------
B|-------------------------
G|-4-4-----2-2---------2-2-
D|-4-4-1--------1-1--------
A|-2-2-1--------1-1--------
E|-----1--------1-1--------
p.m....

any comments, email me!
Comments