Reuben - Freddie Kreuger Chords & Tabs

 

Freddie Kreuger Chords & Tabs

Reuben Chords & Tabs

Version: 1 Type: Tab 0 ratings
1 star 2 stars 3 stars 4 stars 5 stars
comments

Freddie Kreuger Tab

Song: Freddie Kreuger
Band: Reuben
Album: Racecar is racecar backwards
Tabber: Daniel King
Email: neo8549@hotmail.com

*If you have used this tab please rate
*This song is in Drop D a futher half step down

' Harmonic

Intro

Eb|-----------------------------------------|
Bb|----------------------3h5----------------|
Gb|--4-4--0--4-4--0--4h5--------------------|
Db|-----------------------------------------|
Ab|-----------------------------------------|
Db|-----------------------------------------|

Eb|-----------------0---2-------------------|
Bb|-------------------0---0-----------------|
Gb|--4-4--0--4-4--0-------------------------|
Db|-----------------------------------------|
Ab|-----------------------------------------|
Db|-----------------------------------------|

Repeat

Verse 1

Eb|-------------0---2----------------0--2---|
Bb|---------------0---0--------------0--0---|
Gb|-----------------------------------------|
Db|-----------------------------------------|
Ab|-----------------------------------------| *2
Db|-Bass Guitar---------Bass Guitar---------|

Chorus

Eb|-----------------------------------------|
Bb|-----------------------------------------|
Gb|--7-7-7-7-7-7-7-4--5-5-5-5-5-5-5-5-------|
Db|--7-7-7-7-7-7-7-4--5-5-5-5-5-5-5-5-------|
Ab|--5-5-5-5-5-5-5-2--3-3-3-3-3-3-3-3-------|
Db|-----------------------------------------|

Eb|-----------------------------------------|
Bb|-----------------------------------------|
Gb|--7-7-7-7-7-7-7-4---4---4---7------------|
Db|--7-7-7-7-7-7-7-4---5---5---5------------|
Ab|--5-5-5-5-5-5-5-2---3---3---3------------|
Db|-----------------------------------------|

Repeat Intro
Then...

Eb|------------------------------'----------|
Bb|----------------------3h5-/-7-5----------|
Gb|--4-4--0--4-4--0--4h5-----------3~-------|
Db|-----------------------------------------|
Ab|-----------------------------------------|
Db|-----------------------------------------|

Verse 2
[ Tab from: http://www.guitartabs.cc/tabs/r/reuben/freddie_kreuger_tab.html ]
Eb|-------------0---2----------------0--2---|
Bb|---------------0---0--------------0--0---|
Gb|-----------------------------------------|
Db|-----------------------------------------|
Ab|-----------------------------------------|
Db|-Bass Guitar---------Bass Guitar---------|

Eb|-----------------------------------------|
Bb|-----------------------------------------|
Gb|-----------9-9-9-9--4-4-4-4--------------|
Db|--5-5-5-5--9-9-9-9--4-4-4-4--5-5-5-5-----|
Ab|--5-5-5-5--7-7-7-7--2-2-2-2--5-5-5-5-----|
Db|--5-5-5-5--------------------5-5-5-5-----|

Bck to Chorus

Bridge

Eb|--------------------3--------------------|
Bb|----------------------3------------------|
Gb|--7~--4-4-4--5----------5----------------|
Db|--7~--4-4-4--5----5-------5--------------|
Ab|--5~--2-2-2--3--3------------------------|
Db|----------------------------5-3-2-0------|

Eb|-----------------------------------------|
Bb|-----------------------------------------|
Gb|--7~--4-4-4--5---------------------------|
Db|--7~--4-4-4--5---------------------------|
Ab|--5~--2-2-2--3---------------------------|
Db|-----------------------------------------|

Guitar 1

Eb|-----------------------------------------|
Bb|-----------------------------------------|
Gb|--7-7-7-7-7-7-7-4--5-5-5-5-5-5-5-5-------|
Db|--7-7-7-7-7-7-7-4--5-5-5-5-5-5-5-5-------| *3
Ab|--5-5-5-5-5-5-5-2--3-3-3-3-3-3-3-3-------|
Db|-----------------------------------------|

Guitar 2

Eb|-----------------------------------------|
Bb|-----------------------------------------|
Gb|------7-----7-----7-----7-----7----------|
Db|----7-----7-----7-----7-----7------------| *2
Ab|--5-----5-----5-----5-----5--------------|
Db|-----------------------------------------|

Back to Chorus

Ending

Eb|-----------------------------------------|
Bb|-----------------------------------------|
Gb|-----------------------------------------|
Db|--5-4--2-----Let Ring--------------------|
Ab|--5-4--2---------------------------------|
Db|--5-4--2---------------------------------|
    |P M|
Comments