Reuben - Eating Only Apples Chords & Tabs

 

Eating Only Apples Chords & Tabs

Reuben Chords & Tabs

Version: 2 Type: Tab 0 ratings
1 star 2 stars 3 stars 4 stars 5 stars
comments

Eating Only Apples Tab

Song: Eating only apples
Band: Reuben
Album: Racecar is racecar backwards
Tabber: Daniel King
Email: neo8549@hotmail.com

*If you have used this tab please rate
*This song is in Drop D a futher half step down

. - Palm mute

Verse - Bass guitar plays for a while then...

Eb|------------------------------|
Bb|------------------------------|
Gb|--7------7--------------------|
Db|--7---------7-----------------|
Ab|--5------------5--------------|
Db|------------------------------|

Eb|------------------------------------|
Bb|------------------------------------|
Gb|--7-7-7-7-7--7-7-7-7-7--------------|
Db|--7-7-7-7-7--7-7-7-7-7--------------|
Ab|--5-5-5-5-5--5-5-5-5-5--------------| *3
Db|------------------------3-----------|

Eb|-----------------------------------------|
Bb|-----------------------------------------|
Gb|-----------------------------------------|
Db|-----------------------------------------|
Ab|--3-3-3-2-2-2-3-3-3-2-2-2-0-0------------|
Db|------------------------------4~---------|

Chorus

Eb|-----------------------------------------|
Bb|-----------------------------------------|
Gb|--7-7-7-7-7-7-7-7-7-7-7-7-7-7-7-7--------|
Db|--7-7-7-7-7-7-7-7-7-7-7-7-7-7-7-7--------|
Ab|--5-5-5-5-5-5-5-5-5-5-5-5-5-5-5-5--------|
Db|-----------------------------------------|

Eb|-----------------------------------------|
Bb|-----------------------------------------|
Gb|-----------------------------------------|
Db|--5-5-5-4-4-4-5-5-5-4-4-4----------------|
Ab|--3-3-3-2-2-2-3-3-3-2-2-2-7-7-5-5--------|
Db|--------------------------7-7-5-5--------|

Eb|----------0~------0~------|
Bb|----------0~------0~------|
Gb|------------------0~------|
Db|--4-4-4-4-----3-3---------|
Ab|--4-4-4-4-----3-3---------|
Db|--4-4-4-4-----3-3---------|

Repeat Pre Chorus

Chorus
[ Tab from: http://www.guitartabs.cc/tabs/r/reuben/eating_only_apples_tab_ver_2.html ]
Eb|-----------------------------------------|
Bb|-----------------------------------------|
Gb|------------------------------.-.--------|
Db|--5-5--3-3--0-0--0--5-5--3-3--0-0--0-0---|
Ab|--5-5--3-3--0-0--0--5-5--3-3--0-0--0-0---|
Db|--5-5--3-3--0-0--0--5-5--3-3--0-0--0-0---|

Eb|-----------------------------------------|
Bb|-----------------------------------------|
Gb|-----------------------------------------|
Db|--5-5--3-3--0-0--0--5-5--8--8-8-8-8-8-8--|
Ab|--5-5--3-3--0-0--0--5-5--8--8-8-8-8-8-8--|
Db|--5-5--3-3--0-0--0--5-5--8--8-8-8-8-8-8--|

Outro (part1)

Eb|-----------------------------------------|
Bb|-----------------------------------------|
Gb|-----------------------------------------|
Db|-----------------------------------------|
Ab|--.-.-.-.-.-.-.-.-.-.-.-.-.-.-.-.--------| *4
Db|--0-0-0-0-0-0-0-0-0-0-0-0-0-9-9-9--------|

Outro (part2)

Eb|-----------------------------------------|
Bb|-----------------------------------------|
Gb|-----------------------------------------|
Db|-----------------------------------------|
Ab|--.-.-.-.-.-.-.-.-.-.-.-.-.--.--.--.-----|
Db|--0-0-0-0-4-0-0-6-0-0-7-0-10-10-10-10----|

Eb|-----------------------------------------|
Bb|-----------------------------------------|
Gb|-----------------------------------------|
Db|-----------------------------------------|
Ab|--.-.-.-.-.-.-.-.-.-.-.-.-.-.-.-.--------|
Db|--0-0-0-0-4-0-0-6-0-0-7-0-9-9-9-9--------|

Repeat Outro (part2)

Outro (part3)

Eb|-----------------------------------------|
Bb|-----------------------------------------|
Gb|--------------------------11-11-11-11----|
Db|--0-0-0-0-4-0-0-6-0-0-7-0-10-10-10-10----|
Ab|--0-0-0-0-4-0-0-6-0-0-7-0-10-10-10-10----|
Db|--0-0-0-0-4-0-0-6-0-0-7-0-10-10-10-10----|

Eb|-----------------------------------------|
Bb|-----------------------------------------|
Gb|--------------------------10-10-10-10----|
Db|--0-0-0-0-4-0-0-6-0-0-7-0-9--9--9--9-----|
Ab|--0-0-0-0-4-0-0-6-0-0-7-0-9--9--9--9-----|
Db|--0-0-0-0-4-0-0-6-0-0-7-0-9--9--9--9-----|

Repeat Outro (part3)
Comments