Reuben - Blamethrower Chords & Tabs

 

Blamethrower Chords & Tabs

Reuben Chords & Tabs

Version: 3 Type: Tab 0 ratings
1 star 2 stars 3 stars 4 stars 5 stars
comments

Blamethrower Tab

   
Track: BlamethrowerAvailable: Downloadable single April 18th/Very Fast, Very
DangerousTabbed for: fallofthebastille.co.ukBy: Aidan O'BrienKey* = Palm Mute<> =
HarmonicThe new single! It's in standard reuben tuning, and its a bit of a riff fest
really... INTRO
D#|----
A#|----
F#|----
C#|-0--
G#|-0--
C#|-0--
< Volume swellDrums enter
D#|-----------------------------------|
A#|-----------------------------------|
F#|-----------------------------------| x4
C#|-----------------------------------|
G#|-----------------------------------|
C#|-0-0-0-12-12-0-0-0-5-5-5-6-6-6-7-7-|

D#|-----------------------------------|
A#|-----------------------------------|
F#|-----------------------------------|
C#|-7-7-8-8-9-0-0-7-7-8-8-9-9-0-0-0---|x4
G#|-7-7-8-8-9-0-0-7-7-8-8-9-9-0-0-0---|
C#|-7-7-8-8-9-0-0-7-7-8-8-9-9-0-0-0---|
              * *             * * *

VERSE "We all have responsibilities..."
D#|-----------------------------------|
A#|-----------------------------------|
F#|-----------------------------------|x8
C#|-----------------------------------|
G#|-----------------------------------|
C#|-0-0-0-12-12-0-0-0-5-5-5-6-6-6-7-7-|

PRE CHORUS"...blame somebody for..."
D#|-----------------------------------|
A#|-----------------------------------|
F#|-----------------------------------|
C#|-7-7-8-8-9-0-0-7-7-8-8-9-9-0-0-0---|x4
G#|-7-7-8-8-9-0-0-7-7-8-8-9-9-0-0-0---|
C#|-7-7-8-8-9-0-0-7-7-8-8-9-9-0-0-0---|
              * *             * * *
CHORUS "No I don't feel so fucking good..."
D#|-------------------------------|
A#|-------------------------------|
F#|-7---7---7---------------------|
C#|-7---7---7-----7-9-9-7-9-9-7-9-|x3
G#|-5---5---5-----7-9-9-7-9-9-7-9-|
C#|-0---0---0-----7-9-9-7-9-9-7-9-|

"No I don't - I need somebody to..."
D#|--------------------------------|
A#|--------------------------------|
F#|--------------------------------|
C#|-3---3---3----4-4-4-4-5-5-6-6-6-|x1
G#|-3---3---3----4-4-4-4-5-5-6-6-6-|
C#|-3---3---3----4-4-4-4-5-5-6-6-6-|

"BLAAAAAME!"
D#|-----------------------------------|
A#|-----------------------------------|
F#|-----------------------------------|
C#|-7-7-8-8-9-0-0-7-7-8-8-9-9-0-0-0---|x4
G#|-7-7-8-8-9-0-0-7-7-8-8-9-9-0-0-0---|
C#|-7-7-8-8-9-0-0-7-7-8-8-9-9-0-0-0---|
              * *             * * *
SECOND VERSE Just bass for a bit...

So one day somebody asks you how you feel and instead of telling the truth you reel
off a list of things you think they want to hear, because it's easier that way. And
so they treat you like this completley different person because all they know about
you is misinformation, and you practically detach yourself from all your actions,
thinking...

"...thinking..."
D#|-----
A#|-----
F#|-----
C#|----- x1
G#|-----
C#|-12\-
[ Tab from: http://www.guitartabs.cc/tabs/r/reuben/blamethrower_tab_ver_3.html ]
"I don't want to know why I don't mean what I say...
"D#|-------------------------------------------|
A#|--------------------------------------------|
F#|--------------------------------------------|
C#|--------------------------------------------|x4
G#|--------------------------------------------|
C#|-0-0-<4>-0-0-<4>-0-0-<4>-0-0-<4>-0-0-<4>----|

BRIDGE
D#|----------------------------------------------------------------------|
A#|----------------------------------------------------------------------|
F#|----------------------------------------------------------------------|
C#|-0--0--0-0-0--0-0-0--0-0-0--1-1-1--1-1-1-0--0--0-0-0--0-0-0--0-0-0----|
G#|-0--0--0-0-0--0-0-0--0-0-0--1-1-1--1-1-1-0--0--0-0-0--0-0-0--0-0-0----|
C#|-0--0--0-0-0--0-0-0--0-0-0--1-1-1--1-1-1-0--0--0-0-0--0-0-0--0-0-0----|

"You've got to..."
D#|-------|
A#|-------|
F#|-------|
C#|-0-0-0-|
G#|-0-0-0-|
C#|-0-0-0-|
    * * *

PRE CHORUS "...blame somebody for..."
D#|-----------------------------------|
A#|-----------------------------------|
F#|-----------------------------------|
C#|-7-7-8-8-9-0-0-7-7-8-8-9-9-0-0-0---|x4
G#|-7-7-8-8-9-0-0-7-7-8-8-9-9-0-0-0---|
C#|-7-7-8-8-9-0-0-7-7-8-8-9-9-0-0-0---|
              * *             * * *
CHORUS "No I don't feel so fucking good...
"D#|--------------------------------|
A#|---------------------------------|
F#|-7---7---7-----------------------|
C#|-7---7---7-----7-9-9-7-9-9-7-9---|x3
G#|-5---5---5-----7-9-9-7-9-9-7-9---|
C#|-0---0---0-----7-9-9-7-9-9-7-9---|

"No I don't - I need somebody..."
D#|--------------------------------|
A#|--------------------------------|
F#|--------------------------------|
C#|-3---3---3----4-4-4-4-5-5-6-6-6-|x1
G#|-3---3---3----4-4-4-4-5-5-6-6-6-|
C#|-3---3---3----4-4-4-4-5-5-6-6-6-|

This repeats while an overtracked guitar plays the weird disonant lead part:
D#|---------------------------------------------------------|
A#|-15----12----------15-----12----------15----12-----------|
F#|----13-------14b------13-----10--15b-----13--------14b---|
C#|----------12-----------------------------------12--------|
G#|---------------------------------------------------------|
C#|---------------------------------------------------------|

Chill for a second with just drums and bass... then go all heavy and into half time.

"AAAAAAARGH!"
D#|-----------------------------------|
A#|-----------------------------------|
F#|-----------------------------------|
C#|-0-0-0-12-12-0-0-0-5-5-5-6-6-6-7-7-|x4
G#|-0-0-0-12-12-0-0-0-5-5-5-6-6-6-7-7-|
C#|-0-0-0-12-12-0-0-0-5-5-5-6-6-6-7-7-|

That riff then repeats for another 4 times while a second guitar (overtracked) plays:
D#|-------------------------------------------|
A#|-------------------------------------------|
F#|---14-14-14-14-x-x-14-12-12-12-12-12-12-12-|
C#|-0-x--x--x--x--x-x-x--x--x--x--x--x--x--x--|
G#|-0-12-12-12-12-x-x-12-10-10-10-10-10-10-10-|
C#|-0-----------------------------------------|
					END
Comments