Reuben - Blamethrower Chords & Tabs

 

Blamethrower Chords & Tabs

Reuben Chords & Tabs

Version: 1 Type: Tab 0 ratings
1 star 2 stars 3 stars 4 stars 5 stars
comments

Blamethrower Tab

   
THIS SONG F*KING ROCKS its new but i tabbed as much as i could b arsed to....................

_REUBEN_
Blamethrower

DROP D

Chorus:
[ Tab from: http://www.guitartabs.cc/tabs/r/reuben/blamethrower_tab.html ]
e----------------------------------------------------|
b----------------------------------------------------|
g----------------------------------------------------|
d-----6-6--7-7--8-8-----------6-6--7-7--8-8----------|
a-----6-6--7-7--8-8-----------6-6--7-7--8-8----------|
d-----6-6--7-7--8-8-----------6-6--7-7--8-8----------|

SOLO:

e-------------------------------------------------------|
b---15-------12------11~~~~~~~~~~~~~----|              -|
g--------12------12---------------------|     X3       -|
d---------------------------------------| (three times)-|
a---------------------------------------|              -|
d-------------------------------------------------------|
Comments