Reuben - A Kick In The Mouth Chords & Tabs

 

A Kick In The Mouth Chords & Tabs

Reuben Chords & Tabs

Version: 1 Type: Tab 0 ratings
1 star 2 stars 3 stars 4 stars 5 stars
comments

A Kick In The Mouth Tab

   
New Reuben Song, Out 13th June.

Drop D
Just play in time with the song!

Intro:
e----------------------------------------------------|
b----------------------------------------------------|
g----------------------------------------------------|
d-----0-0--9--0-0--9--0-0----0-0-0--2--0--2--0-------|
a-----0-0--9--0-0--9--0-0----0-0-0--2--0--2--0-------|
d-----0-0--9--0-0--9--0-0----0-0-0--2--0--2--0-------|
 repeat x 4

Verse (pretty much in time with the words)
Ain't that sweet, she digs on me...
e---------------------------------------------------------|
b---------------------------------------------------------|
g---------------------------------------------------------|
d--7--6--4--9--7--6--4--4-6-4--7--6--4--9--7--6--4--4-6-4-|
a---------------------------------------------------------|
d---------------------------------------------------------|
repeat x 2

Dj Spins electric beat, I'm gonna...
e---------------------------------------------------------|
b---------------------------------------------------------|
g---------------------------------------------------------|
d--7--6--4--9--7--6--4--4-6-4--7--6--4--9--7--6--4--4-6-4-|
a---------------------------------------------------------|
d---------------------------------------------------------|
repeat x 2

Bridge:
Hey, I could've been someone else....
e---------------------------------------------------------|
b---------------------------------------------------------|
g---------------------------------------------------------|
d--6-6-6-6-6-6-6-6-6-6--8-8-8--0-0-0-0-0-0-0-0-0-0--9-9-9-|
a--6-6-6-6-6-6-6-6-6-6--8-8-8--0-0-0-0-0-0-0-0-0-0--9-9-9-|
d--6-6-6-6-6-6-6-6-6-6--8-8-8--0-0-0-0-0-0-0-0-0-0--9-9-9-|
repeat x 4

Chorus:
Yeh, yeh, it's just a kick in the mouth.
e----------------------------------------------------|
b----------------------------------------------------|
g----------------------------------------------------|
d-----0-0--9--0-0--9--0-0----0-0-0--2--0--2--0-------|
a-----0-0--9--0-0--9--0-0----0-0-0--2--0--2--0-------|
d-----0-0--9--0-0--9--0-0----0-0-0--2--0--2--0-------|
 repeat x 4
[ Tab from: http://www.guitartabs.cc/tabs/r/reuben/a_kick_in_the_mouth_tab.html ]
Verse 2
(Bass Only)
What if i had played football, Or if i hadn't....
e--------------------------------------------------------|
b--------------------------------------------------------|
g--------------------------------------------------------|
d--------------------------------------------------------|
a--------------------------------------------------------|
d-----0-0--9--0-0--9--0-0----0-0-0--2--0--2--0-----------|
repeat x 2

But i won't think to much tonight, Because it all....
e---------------------------------------------------------|
b---------------------------------------------------------|
g---------------------------------------------------------|
d--7--6--4--9--7--6--4--4-6-4--7--6--4--9--7--6--4--4-6-4-|
a---------------------------------------------------------|
d---------------------------------------------------------|
repeat x 2

Bridge2:
(Queit Strumming)
Hey, I could've been someone else....
e---------------------------------------------------------|
b---------------------------------------------------------|
g---------------------------------------------------------|
d--6-6-6-6-6-6-6-6-6-6--8-8-8--0-0-0-0-0-0-0-0-0-0--9-9-9-|
a--6-6-6-6-6-6-6-6-6-6--8-8-8--0-0-0-0-0-0-0-0-0-0--9-9-9-|
d--6-6-6-6-6-6-6-6-6-6--8-8-8--0-0-0-0-0-0-0-0-0-0--9-9-9-|
repeat x 2

(Loud Strumming on 9's)
Hey, I could've been someone else....
e---------------------------------------------------------|
b---------------------------------------------------------|
g---------------------------------------------------------|
d--6-6-6-6-6-6-6-6-6-6--8-8-8--0-0-0-0-0-0-0-0--9-9-9-9-9-|
a--6-6-6-6-6-6-6-6-6-6--8-8-8--0-0-0-0-0-0-0-0--9-9-9-9-9-|
d--6-6-6-6-6-6-6-6-6-6--8-8-8--0-0-0-0-0-0-0-0--9-9-9-9-9-|

(Normal Strumming)
Hey, I could've been someone else....
e---------------------------------------------------------|
b---------------------------------------------------------|
g---------------------------------------------------------|
d--6-6-6-6-6-6-6-6-6-6--8-8-8--0-0-0-0-0-0-0-0-0-0--9-9-9-|
a--6-6-6-6-6-6-6-6-6-6--8-8-8--0-0-0-0-0-0-0-0-0-0--9-9-9-|
d--6-6-6-6-6-6-6-6-6-6--8-8-8--0-0-0-0-0-0-0-0-0-0--9-9-9-|
repeat x 4

Solo: (Backing repeats Bridge 4 Times)

Chorus:
Yeh, yeh, it's just a kick in the mouth.
e----------------------------------------------------|
b----------------------------------------------------|
g----------------------------------------------------|
d-----0-0--9--0-0--9--0-0----0-0-0--2--0--2--0-------|
a-----0-0--9--0-0--9--0-0----0-0-0--2--0--2--0-------|
d-----0-0--9--0-0--9--0-0----0-0-0--2--0--2--0-------|
 repeat x 8

Enjoy!
Comments