Retrospective - Trevor's Song Chords & Tabs

 

Trevor's Song Chords & Tabs

Retrospective Chords & Tabs

Version: 1 Type: Tab 2 ratings
1 star 2 stars 3 stars 4 stars 5 stars
comments

Trevor's Song Tab

Trevor's Song
By: Retrospective

e--------------------------------------------------
b--------------------------------------------------
g--------------------------------------------------
d--------------------------------------------------
a--------------------------------------------------
E---333---111---444---333----333---111---444---333-


e--------------------------------------------------
b--------------------------------------------------
g--------------------------------------------------
d--------------------------------------------------
a--------------------------------------------------
E---777---555---888---777----777---555---888---777-

[ Tab from: http://www.guitartabs.cc/tabs/r/retrospective/trevors_song_tab.html ]
e--------------------------------------------------
b--------------------------------------------------
g--------------------------------------------------
d--------------------------------------------------
a---777---555---888---777----777---555---888---777-
E--------------------------------------------------


e--------------------------------------------------
b--------------------------------------------------
g--------------------------------------------------
d---777---555---888---777----777---555---888---777-
a--------------------------------------------------
E--------------------------------------------------


e--------------------------------------------------
b--------------------------------------------------
g--------------------------------------------------
d---7p60-------------------------------------------
a---------7p60-------------------------------------
E---------------7p60-------------------------------


e--------------------------------------------------
b--------------------------------------------------
g---5---3---4----9---7----10---5---3---4-----------:
d---5---3---4----9---7----10---5---3---4-----------:
a---3---1---2----7---5-----8---3---1---2-----------:
reapeat whole song


legend:
 p-pull off
:-repeat
Comments