Retrospective - The Flame Chords & Tabs

 

The Flame Chords & Tabs

Retrospective Chords & Tabs

Version: 1 Type: Tab 2 ratings
1 star 2 stars 3 stars 4 stars 5 stars
comments

The Flame Tab

The Flame
Retrospective

Intro/Verse
e---------------------------------
b---------------------------------
g---------------------------------
d---------------------------------
a-----3---------------3-----------
E---5---5---3-3---5-5---5--3-5-5--

[ Tab from: http://www.guitartabs.cc/tabs/r/retrospective/the_flame_tab.html ]
e---------------------------------
b---------------------------------
g---------------------------------
d---------------------------------
a-----3---------------3-5-3-------
E---5---5---3-3---5-5-------5-5---

Chorus: Strum: down down down up down up down up
e------------
b------------
g-----5------
d---7-5-7-5--
a---7-3-7-5--
E---5---5-3--
x4

e------------
b------------
g-----5------
d---7-5-5-7--
a---7-3-5-7--
E---5---3-5--

Bridge:
e-----------
b-----------
g----5------
d--7-5-7-5--
a--7-3-7-5--
E--5---5-3--
x10 no strum


Order:
Intro
Verse 1
Chorus
Verse 2
Bridge
Chorus x2
Verse 3
Chorus x4
Outro(same as intro)

Written by Andrew Hopkins
Comments