Retali8 - Chains Chords & Tabs

 

Chains Chords & Tabs

Retali8 Chords & Tabs

Version: 1 Type: Tab 0 ratings
1 star 2 stars 3 stars 4 stars 5 stars
comments

Chains Tab

-------------------------------------------------------------------------------
			     chains-retali8
-------------------------------------------------------------------------------

tabbed by Mc Hook
this is a new song of a fairly new bands fairly new album
(tooo confusing)
I know this looks wrong because the chorus is first but thats the way they play it!!!!
they're a cool band, they want to be different!!!!!!

intro guitar 1 lots and lots and loads of tremalo
e|-8/10~~~\0~~~~~~~~~~~~~~---------------------------------------------------|
B|---------2~~~~~~~~~~~~~~---------------------------------------------------|
G|---------2~~~~~~~~~~~~~~---------------------------------------------------|
D|---------------------------------------------------------------------------|
A|---------------------------------------------------------------------------|
E|---------------------------------------------------------------------------|

intro guitar 2  lots and lots and loads of tremalo aswell
e|---------0~~~~~~~~~~~~~~---------------------------------------------------|
B|---------2~~~~~~~~~~~~~~---------------------------------------------------|
G|---------2~~~~~~~~~~~~~~---------------------------------------------------|
D|---------------------------------------------------------------------------|
A|---------------------------------------------------------------------------|
E|---------------------------------------------------------------------------|


chorus guitar 1
e|---------------------------------------------------------------------------|
B|---------------------------------------------------------------------------|
G|---------------------------------------------------------------------------|
D|--2-2-2-2-2-2-2222--5-5-5555--7-7-7777-------------------------------------|
A|--2-2-2-2-2-2-2222--5-5-5555--7-7-7777---x3--------------------------------|
E|--0-0-0-0-0-0-0000--3-3-3333--5-5-5555-------------------------------------|

chorus guitar 2
e|---------------------------------------------------------------------------|
B|---------------------------------------------------------------------------|
G|---------------------------------------------------------------------------|
D|-2-2-2-2-5-5-5-5-7-7-7-7-5-5-5-5-------------------------------------------|
A|-2-2-2-2-5-5-5-5-7-7-7-7-5-5-5-5-x3----------------------------------------|
E|-0-0-0-0-3-3-3-3-5-5-5-5-3-3-3-3-------------------------------------------|
[ Tab from: http://www.guitartabs.cc/tabs/r/retali8/chains_tab.html ]
bridge  guitar 1
e|------------------------------x--------------------------------------------|
B|------------------------------x--------------------------------------------|
G|------------------------------x--------------------------------------------|
D|-2525-75752----2----2----2----x--------------------------------------------|
A|-2525-55552----2----2----2----x--------------------------------------------|
E|-0303-53530----0----0----0----x--------------------------------------------|
            --------------------
            let these notes ring

verse guitar 1
e|---------------------------------------------------------------------------|
B|---------------------------------------------------------------------------|
G|--77-9-9-9-5-5-7-777--7-7-9-99-77775555------------------------------------|
D|--77-9-9-9-5-5-7-777--7-7-7-99-77775555-x4---------------------------------|
A|--55-7-7-7-3-3-5-555--5-5-7-77-55553333------------------------------------|
E|---------------------------------------------------------------------------|

verse guitar 2    
e|---------------------------------------------------------------------------|
B|---------------------------------------------------------------------------|
G|-7-7-7-7-9-9-9-9-5-5-5-5-3-3-3-3-------------------------------------------|
D|-7-7-7-7-9-9-9-9-5-5-5-5-1-1-1-1--x4---------------------------------------|
A|-5-5-5-5-7-7-7-7-3-3-3-3-1-1-1-1-------------------------------------------|
E|---------------------------------------------------------------------------|

solo guitar 1
e|9~~-12~~~-7~~~-9~~~-12~~~-7~~~-9h12p9-7h9p7-6--9~~~-12~~~-12~12~12~~~-9~~--|
B|---------------------------------------------------------------------------|
G|---------------------------------------------------------------------------|
D|---------------------------------------------------------------------------|
A|---------------------------------------------------------------------------|
E|---------------------------------------------------------------------------|

e|-7~~~~~~~~~~~~~~~~~--------------------------------------------------------|
B|---------------------------------------------------------------------------|
G|---------------------------------------------------------------------------|
D|---------------------------------------------------------------------------|
A|---------------------------------------------------------------------------|
E|---------------------------------------------------------------------------|

outro guitar 1&2    loads of tremalo 
e|-00~~~~~~~~~~~~~-----------------------------------------------------------|
B|-22~~~~~~~~~~~~~-----------------------------------------------------------|
G|-22~~~~~~~~~~~~~-----------------------------------------------------------|
D|---------------------------------------------------------------------------|
A|---------------------------------------------------------------------------|
E|---------------------------------------------------------------------------|




lay out
guitar1     |guitar 2

intro       |intro
chorus      |chorus
bridge      |
verse       |verse
chorus      |chorus
solo        |           -(bass plays here)
verse       |verse
chorus      |chorus
bridge x2   |
outro       |outro
Comments