Reset - Why Chords & Tabs

 

Why Chords & Tabs

Reset Chords & Tabs

Version: 1 Type: Tab 0 ratings
1 star 2 stars 3 stars 4 stars 5 stars
comments

Why Tab

   
===========================================================
	Artist: Reset
	  Song: Why?
	 Album: No Worries
===========================================================

Tabbed: TheMutts @ Ultimate-Guitar.com
Email: st_jimmy_themutts@yahoo.com

Tuning: Standard


-------------
Verse
-------------

|----------------------------------------------------|
|----------------------------------------------------|
|----------------------------------------------------|
|--7-7-7-7-7-7-7-7-7-7-7-7-7--6-4-4-4-4-4-4-4-4-4-4--|
|--7-7-7-7-7-7-7-7-7-7-7-7-7--6-4-4-4-4-4-4-4-4-4-4--|
|--5-5-5-5-5-5-5-5-5-5-5-5-5--4-2-2-2-2-2-2-2-2-2-2--|
   PM----------------------|    PM-----------------|



[ Tab from: http://www.guitartabs.cc/tabs/r/reset/why_tab.html ]
|----------------------------------------------------------|
|----------------------------------------------------------|
|----7-7-7-7-7-7-7-7-7-7-6---------------------------------|
|--2-7-7-7-7-7-7-7-7-7-7-6-2-2-2-2-2-2-2-2-4-6-7-7-7-7-7-7-|(2x)     
|--2-5-5-5-5-5-5-5-5-5-5-4-2-2-2-2-2-2-2-2-4-6-7-7-7-7-7-7-|   
|--0-----------------------0-0-0-0-0-0-0-0-2-4-5-5-5-5-5-5-|   
     PM----------------|   PM-------------|                



Riff A
|-------------------|
|-------------------|
|--7-6-4------------|
|--------7-6-4-6-7--|
|-------------------|
|-------------------|


------------
Chorus
------------

|----------------------------------------------------------|
|----------------------------------------------------------|
|----------------------------------------------------------|
|---7-7-7-7-7-7-7-7-7-7-7-7-7-6-4-4-4-4-4-4-4-4-4-4-4-4-2--|
|---7-7-7-7-7-7-7-7-7-7-7-7-7-6-4-4-4-4-4-4-4-4-4-4-4-4-2--|
|---5-5-5-5-5-5-5-5-5-5-5-5-5-4-2-2-2-2-2-2-2-2-2-2-2-2-0--|


|---------------------------------------------------------|
|---------------------------------------------------------|
|--7-7-7-7-7-7-7-7-7-7-7-6--------------------------------|
|--7-7-7-7-7-7-7-7-7-7-7-6-2-2-2-2-2-2-2-2-2-2--2-4-6-7---|
|--5-5-5-5-5-5-5-5-5-5-5-4-2-2-2-2-2-2-2-2-2-2--2-4-6-7---|
|--------------------------0-0-0-0-0-0-0-0-0-0--0-2-4-5---|


That simple folks.. enjoy
Comments