Reset - Virtuality Chords & Tabs

 

Virtuality Chords & Tabs

Reset Chords & Tabs

Version: 1 Type: Tab 0 ratings
1 star 2 stars 3 stars 4 stars 5 stars
comments

Virtuality Tab

RESET - Virtuality
( Album : Radioactive )

Tabbed by : Adam Doyon alias Johnny


Intro

|---------------------------------------------------------|
|---------------------------------------------------------|
|-3-3-3-3-3---------------------------8-8-8-8-8--10-10-10-|
|-3-3-3-3-3--3-3-3--3-3-3-3--6-6-6-6--8-8-8-8-8--10-10-10-|
|-1-1-1-1-1--3-3-3--4-4-4-4--6-6-6-6--6-6-6-6-6--8--8--8--|
|------------1-1-1-----------4-4-4-4----------------------|
  . . . . .  . . .  . . . .  . . . .  . . . . .  .  .  .

------------------|-------------------------------------|
------------------|-------------------------------------|
------------------|-3-3-3-3-3---------------------------|
-8-8-8-8--3-3-3-3-|-3-3-3-3-3--3-3-3--3-3-3-3--6-6-6-6--|
-9-9-9-9--4-4-4-4-|-1-1-1-1-1--3-3-3--4-4-4-4--6-6-6-6--|
------------------|------------1-1-1-----------4-4-4-4--|
 . . . .  . . . .   . . . . .  . . .  . . . .  . . . .
__________________________________1   ____________________2
--------------------------------- |  -|---------------------||
----------------6-6-6-6-6-6-6-6--    -|----------------6----||
----------------5-5-5-5-5-5-5-5--    -|----------------5----||
-4-4-4--3--3-3-------------------    -|-4-4-4--3--3-3-------||
-4-4-4--3--3-3-------------------    -|-4-4-4--3--3-3-------||
-2-2-2--1--1-1-------------------    -|-2-2-2--1--1-1-------||


Riff 1 (x2)
|------------------------------------------------------------------|
|------------------------------------------------------------------|
|---------------6-5---8-6h5p6h5p6h5----------------6-5---8--10-8-6-|
|-------------------6---------------6-6-666-6-666------6-----------|
|-8-8-888-8-888---------------------4-4-444-4-444------------------|
|-6-6-666-6-666----------------------------------------------------|
    . ... . ...                     . . ... . ...

----------------------------------------------------------|
----------------------------------------------------------|
---------------6-5---8-6h5p6h5p6h5------------------------|
-------------------6---------------6-666-6--6--8-888-8--8-|
-8-8-888-8-888---------------------4-444-4--4--6-666-6--6-|
-6-6-666-6-666--------------------------------------------|
 . . ... . ...                       ...         ...


Riff 2 (x4)
||--------------------------------------------------------||
||--------------------------------------------------------||
||----------------------------------------------8~-6-5----||
||--------------------------6-666--6--6-8--888---------6--||
||-8-888--8--8-8--888--8--8-4-444--4--4-6--666------------||
||-6-666--6--6-6--666--6--6-------------------------------||
     ...          ...         ...          ...


Pre-Chorus
|--------------------------------------------------------------|
|--------------------------------------------------------------|
|--------------------------------------------------------------|
|-11-111111 11-11-8-888-8--8--10-101010-10-10-10-101010-10-10--|
|-9--9-9-9--9--9--6-666-6--6--8--8-8-8--8--8--8--8-8-8--8--8---|
|--------------------------------------------------------------|
     . . .          ...          . . .           . . .

------------------------------------------------------------|
------------------------------------------------------------|
------------------------------------------------------------|
-11-111111 11-11-8-888-8--8-----------------10-101010-10-10-|
-9--9-9-9--9--9--6-666-6--6-10-101010-10-10-8--8-8-8--8--8--|
----------------------------8--8-8-8--8--8------------------|
    . . .          ...         . . .           . . .

----------------------------------------------------------------|
----------------------------------------------------------------|
----------------------------------------------------------------|
-11-111111 11-11-8-888-8--8--10-101010-10-10-8/10-101010-10-10--|
-9--9-9-9--9--9--6-666-6--6--8--8-8-8--8--8--6/8--8-8-8--8--8---|
----------------------------------------------------------------|
    . . .          ...          . . .           . . .

-----------------------------------|
-----------------------------------|
-----------------------------------|
-11-111111 11-11-8-888-8--8/10/8/6-|
-9--9-9-9--9--9--6-666-6--6/8-/6/4-|
-----------------------------------|
    . . .          ...


Chorus (x2)
|-------------------------------------------------------------------------|
|-------------------------------------------------------------------------|
|-------------------------------------------------------------------------|
|-3-3-3-x-5-6-6-----8-8-8-x-10-11-11---------3-3-3-x-6-6-6---------333----|
|-1-1-1-x-3-4-4-666-6-6-6-x-8--9--9--11111---1-1-1-x-3-4-4-666-4-4-444-8--|
|---------------444------------------9-9-9-----------------444-2-2-----6--|


Riff 3 (x2)
|------------------------------------------------------------------|
|------------------------------------------------------------------|
|---------------6-5---8-6h5p6h5p6h5----------------6-5---8--10-8-6-|
|-------------------6---------------6-6-666-6-666------6-----------|
|-8-8-888-8-888---------------------4-4-444-4-444------------------|
|-6-6-666-6-666----------------------------------------------------|
    . ... . ...                     . . ... . ...

[ Tab from: http://www.guitartabs.cc/tabs/r/reset/virtuality_tab.html ]
----------------------------------------------------------|
----------------------------------------------------------|
---------------6-5---8-6h5p6h5p6h5------------------------|
-------------------6---------------6-666-6--6--8-888-8--8-|
-8-8-888-8-888---------------------4-444-4--4--6-666-6--6-|
-6-6-666-6-666--------------------------------------------|
 . . ... . ...                       ...         ...


Riff 4 (x4)
||--------------------------------------------------------||
||--------------------------------------------------------||
||----------------------------------------------8~-6-5----||
||--------------------------6-666--6--6-8--888---------6--||
||-8-888--8--8-8--888--8--8-4-444--4--4-6--666------------||
||-6-666--6--6-6--666--6--6-------------------------------||
     ...          ...         ...          ...


Pre-Chorus
|--------------------------------------------------------------|
|--------------------------------------------------------------|
|--------------------------------------------------------------|
|-11-111111 11-11-8-888-8--8--10-101010-10-10-10-101010-10-10--|
|-9--9-9-9--9--9--6-666-6--6--8--8-8-8--8--8--8--8-8-8--8--8---|
|--------------------------------------------------------------|
     . . .          ...          . . .           . . .
------------------------------------------------------------|
------------------------------------------------------------|
------------------------------------------------------------|
-11-111111 11-11-8-888-8--8-----------------10-101010-10-10-|
-9--9-9-9--9--9--6-666-6--6-10-101010-10-10-8--8-8-8--8--8--|
----------------------------8--8-8-8--8--8------------------|
    . . .          ...         . . .           . . .

----------------------------------------------------------------|
----------------------------------------------------------------|
----------------------------------------------------------------|
-11-111111 11-11-8-888-8--8--10-101010-10-10-8/10-101010-10-10--|
-9--9-9-9--9--9--6-666-6--6--8--8-8-8--8--8--6/8--8-8-8--8--8---|
----------------------------------------------------------------|
    . . .          ...          . . .           . . .


-----------------------------------|
-----------------------------------|
-----------------------------------|
-11-111111 11-11-8-888-8--8/10\8\6-|
-9--9-9-9--9--9--6-666-6--6/8-\6\4-|
-----------------------------------|
    . . .          ...


Chorus (x2)
|-------------------------------------------------------------------------|
|-------------------------------------------------------------------------|
|-------------------------------------------------------------------------|
|-3-3-3-x-5-6-6-----8-8-8-x-10-11-11---------3-3-3-x-6-6-6---------333----|
|-1-1-1-x-3-4-4-666-6-6-6-x-8--9--9--11111---1-1-1-x-3-4-4-666-4-4-444-8--|
|---------------444------------------9-9-9-----------------444-2-2-----6--|


Solo

|---------------------------------------------------------------------|
|---------------------------------------------------------------------|
|-10-8-10~-10-8-10-10^10^10^11-10-11~13131311111110101010888-10-8-10~-|
|---------------------------------------------------------------------|
|---------------------------------------------------------------------|
|---------------------------------------------------------------------|


-----------------------------------------------------------------|
-----------------------------------------------------------------|
-11h10p8---------11h10p8-----------------------------------------|
---------11h10p8---------11h10p8-11-10-8fb-(10)-8~-10h8p6-10h8p6-|
-----------------------------------------------------------------|
-----------------------------------------------------------------|


--------------------------------------------------------------------|
--------------------------------------------------------------------|
--------------------------------------------------------------------|
-10h8p6-10h8p6--10h8p6-10h8p6-10h8p6-10h8p6-11h10p8-11h10p8-11h10p8-|
--------------------------------------------------------------------|
--------------------------------------------------------------------|


---------------------------------------------------8-9-8----8-|
---------------------------------------------------------11---|
--------------------------------------------------------------|
-11h10p8-11h10p8-11h10p8--11h10p8-11h10p8-11h10p8-------------|
--------------------------------------------------------------|
--------------------------------------------------------------|


-------------------------------------------|
11-9-8--8-9-8----8-------------------------|
--------------10---10----------------------|
----------------------9h10-12-13-12-10-12~-|
-------------------------------------------|
-------------------------------------------|


Ending
|-------------------------------------------|
|-------------------------------------------|
|-------------------------------------------|
|-3-3-3-x-5-6-6-----8-8-8-x-10-11-11--------|
|-1-1-1-x-3-4-4-666-6-6-6-x-8--9--9--11111--|
|---------------444------------------9-9-9--|

---------------------------------------|--------|
---------------------------------------|--------|
--------------------------------------|--------|
-3-3-3-x-6-6-6---------333-------------|--------|
-1-1-1-x-3-4-4-666-4-4-444-8-8-8-8-8--|-6--8/--|
---------------444-2-2-----6-6-6-6-6---|-4--6/--|

 ______________________________________
 Legend :

 x : Scratch
 ~ : vibrato
 h : hammer on
 p : pull off
 ^ : bend
 fb: full bend
 (): ghost
 . : palm mute
 /\: slide
Comments