Reset - Planet Earth Chords & Tabs

 

Planet Earth Chords & Tabs

Reset Chords & Tabs

Version: 1 Type: Tab 0 ratings
1 star 2 stars 3 stars 4 stars 5 stars
comments

Planet Earth Tab

   
reset is a punk band from montreal,
they have two albums out: "No worries" and "No limits"
you can find info adout them on their labels website www.stomprecords.com  

This is a really fast punk rock song from what use to be a amazing band
can you believe those guys are now known as simple plan ... 
it's kind of sad ... 
b=bend
/=slide down
\=slide up
x=muted string

 e|---------------------------------------------|
 B|---------------------------------------------|
 G|------5-5-------7-77-------5-5---10/9\10-7-77|
 D|5-----5-5--4-4--7-77--5----5-5---10/9\10-7-77|
 A|5-----3-3--4-4--5-55--5----3-3-3--8/7\-8-5-55|
 E|33333----0-2-2-0----0-33333------------------|
PM  ....    .     .    .  ....    .
[ Tab from: http://www.guitartabs.cc/tabs/r/reset/planet_earth_tab.html ]
 e|-----------------------------------------|
 B|-----------------------------------------|
 G|-----5-5-------7-77---------------5-7-9b-|
 D|5----5-5--4-4--7-77--2----2-22--5-5-7-x--|
 A|5----3-3--4-4--5-55--2----2-22--5-3-5-7b-|
 E|33333---0-2-2-0----0-000000-000-3--------|
PM  ....   .     .    .  ....    .

|------|
|Lyrics|
|------|

planet earth is abused
you know we're to blame
symposium shows it's not too late
constant threat , nuclear war
corrective measures await us all
starring death , in the face
the end of the human race
no it's not too late
no it's not the right time
to cross the gate invisible line
established by mankind
our planet is abused
can't live this way anymore
i don't know 
are we near the end
is it real ten years it might be too late 
no it's not the right time
to cross the gate invisible 
established by mankind
our planet is abused
won't live this way anymore
Comments