Reset - Mydream And I Chords & Tabs

 

Mydream And I Chords & Tabs

Reset Chords & Tabs

Version: 1 Type: Bass Tab 0 ratings
1 star 2 stars 3 stars 4 stars 5 stars
comments

Mydream And I Bass Tab

Reset - Mydream And I
Tabbed By: Mathieu Dumont
EMail: hardcore_junk@hotmail.com


G------------------------------------------------------
D------------------------------------------------------
A---- 5--7--3---5----3----5--2--3----5---3-------------
E--3------------3---0----3------------3----------------

Verse 1:

G------------------------------------------------------
D------------------------------------------------------
A------5--7--3----5--2--3----5--3----------------------
E--3-------------3------------3------------------------

Chorus:

G------------------------------------------------------
D---2--------------------------------------------------
A--------3-----------------3---------------------------
E--------------3--2--0------3--------------------------

Verse 2
[ Tab from: http://www.guitartabs.cc/tabs/r/reset/mydream_and_i_btab.html ]
G-------------------------------------------------------------------- 
D--------------------------------------------------------------------
A-----5--7--3------5--7--3------5--2--3------------------------------
E--3--------------3-------------3--------------3--2--0--3--2---------

Bridge (slow part) : play these notes once! some a bit more! 
G--------------------------------------------------------
D--2-----------------------------------------------------
A----3--------------------3------3-----------------------
E-------3--2---0---2--3--------------3---2--------------- 

Part after Bridge

G-------------------------------------------------------- 
D--------------------------------------------------------
A--------5---2---3-----------5----3----------------------
E----3----------------------3----------------------------


Pour toi flore je te lavais dit chérie!
Comments