Reset - Moonlight Chords & Tabs

 

Moonlight Chords & Tabs

Reset Chords & Tabs

Version: 1 Type: Tab 0 ratings
1 star 2 stars 3 stars 4 stars 5 stars
comments

Moonlight Tab

   
RESET - Moonlight
Album : Radioactive
Tabbed by : Adam Doyon alias Johnny

Intro
e|----------------------------------------------------------------|
B|----------------------------------------------------------------|
G|----------------------------------------------------------------|
D|-8-888-11-111111-6666-10-101010-8-888-11-111111-6/8-10---------|
A|-8-888-9-9-9-9-4-444-8-8-8-8--8-888-9-9-9-9-4/6-8-6-8-6-4-|
D|-8-888---------------------------8-888--------------------------|
     ...    . . .    ...    . . .    ...    . . .

e|----------------------------------------------------------------||
B|----------------------------------------------------------------||
G|----------------------------------------------------------------||
D|-8-888-11-111111-6666-10-101010-8-888-11-111111-6/8-1010101010-||
A|-8-888-9-9-9-9-4-444-8-8-8-8--8-888-9-9-9-9-4/6-8888-8--||
D|-8-888---------------------------8-888--------------------------||
     ...    . . .    ...    . . .    ...    . . .

e|---------------------------------------------------------|
B|---------------------------------------------------------|
G|---------------------------------------------------------|
D|-8-888-8-3/4/6/4-4-444-4-4-4-1-111-1-1/3/4/3-3-333-3-333-|
A|-8-888-8-3/4/6/4-4-444-4-4-4-1-111-1-1/3/4/3-3-333-3-333-|
D|-8-888-8-3/4/6/4-4-444-4-4-4-1-111-1-1/3/4/3-3-333-3-333-|
     ...             ...   .     ...             ...   ...

e|---------------------------------------------------------------|
B|---------------------------------------------------------------|
G|---------------------------------------------------------------|
D|-8-888-8-3/4/6/4-4-444-4-4-4-1-111-1-1/3/4/3-3-333-------------|
A|-8-888-8-3/4/6/4-4-444-4-4-4-1-111-1-1/3/4/3-3-333-4-3-1-8-6-4-|
D|-8-888-8-3/4/6/4-4-444-4-4-4-1-111-1-1/3/4/3-3-333-------------|
     ...             ...   .     ...

e|---------------------------------------------------------|
B|---------------------------------------------------------|
G|---------------------------------------------------------|
D|-8-888-8-3/4/6/4-4-444-4-4-4-1-111-1-1/3/4/3-3-333-3-333-|
A|-8-888-8-3/4/6/4-4-444-4-4-4-1-111-1-1/3/4/3-3-333-3-333-|
D|-8-888-8-3/4/6/4-4-444-4-4-4-1-111-1-1/3/4/3-3-333-3-333-|
     ...             ...   .     ...             ...   ...

e|---------------------------------------------------------------|
B|---------------------------------------------------------------|
G|---------------------------------------------------------------|
D|-8-888-8-3/4/6/4-4-444-4-4-4-1-111-1-1/3/4/3-3-333-------------|
A|-8-888-8-3/4/6/4-4-444-4-4-4-1-111-1-1/3/4/3-3-333-4-3-1-8-6-4-|
D|-8-888-8-3/4/6/4-4-444-4-4-4-1-111-1-1/3/4/3-3-333-------------|
     ...             ...   .     ...

e|----------------------------------------------------------|
B|----------------------------------------------------------|
G|----------------------------------------------------------|
D|-8-888-8-3/4/6/4-4-444-4-4-4-1-111-1-1/3/4/3-3-333-101010-|
A|-8-888-8-3/4/6/4-4-444-4-4-4-1-111-1-1/3/4/3-3-333-8-8-8--|
D|-8-888-8-3/4/6/4-4-444-4-4-4-1-111-1-1/3/4/3-3-333--------|
     ...             ...   .     ...             ...
[ Tab from: http://www.guitartabs.cc/tabs/r/reset/moonlight_tab.html ]
e|---------------------------------------------------------------|
B|---------------------------------------------------------------|
G|---------------------------------------------------------------|
D|-8-888-8-3/4/6/4-4-444-4-4-4-1-111-1-1/3/4/3-3-333-------------|
A|-8-888-8-3/4/6/4-4-444-4-4-4-1-111-1-1/3/4/3-3-333-4-3-1-8-6-4-|
D|-8-888-8-3/4/6/4-4-444-4-4-4-1-111-1-1/3/4/3-3-333-------------|
     ...             ...   .     ...
e|----------------------------------------------------------|
B|----------------------------------------------------------|
G|----------------------------------------------------------|
D|-8-888-8-3/4/6/4-4-444-4-4-4-1-111-1-1/3/4/3-3-333-101010-|
A|-8-888-8-3/4/6/4-4-444-4-4-4-1-111-1-1/3/4/3-3-333-8-8-8--|
D|-8-888-8-3/4/6/4-4-444-4-4-4-1-111-1-1/3/4/3-3-333--------|
     ...             ...   .     ...             ...

e|---------------------------------------------------------------|
B|---------------------------------------------------------------|
G|---------------------------------------------------------------|
D|-8-888-8-3/4/6/4-4-444-4-4-4-1-111-1-1/3/4/3-3-333-------------|
A|-8-888-8-3/4/6/4-4-444-4-4-4-1-111-1-1/3/4/3-3-333-4-3-1-8-6-4-|
D|-8-888-8-3/4/6/4-4-444-4-4-4-1-111-1-1/3/4/3-3-333-------------|
     ...             ...   .     ...

e|-----------------------------------------------------------------|
B|-----------------------------------------------------------------|
G|-----------------------------------------------------------------|
D|-8-888-8-888-11-111111-11-111111-6-666-6-666-10-101010-10-101010-|
A|-8-888-8-888-9-9-9-9-9-9-9-9-4-444-4-444-8--8-8-8-8-8-8-8--|
D|-8-888-8-888-----------------------------------------------------|
     ...   ...    . . .     . . .    ...   ...    . . .     . . .
e|-----------------------------------------------------------------|
B|-----------------------------------------------------------------|
G|-----------------------------------------------------------------|
D|-8-888-8-888-11-111111-11-111111-6-666-6-666-10-101010-10-101010-|
A|-8-888-8-888-9-9-9-9-9-9-9-9-4-444-4-444-8--8-8-8-8-8-8-8--|
D|-8-888-8-888-----------------------------------------------------|
     ...   ...    . . .     . . .    ...   ...    . . .     . . .

e|-----------------------|
B|-----------------------|
G|-----------------9-10--|
D|---------8-10-11-------|
A|-8-10-11---------------|
D|-----------------------|


Chorus
e|----------------------------------------------------------------|
B|----------------------------------------------------------------|
G|----------------------------------------------------------------|
D|-8-888-11-111111-6666-10-101010-8-888-11-111111-6/8-10---------|
A|-8-888-9-9-9-9-4-444-8-8-8-8--8-888-9-9-9-9-4/6-8-6-8-6-4-|
D|-8-888---------------------------8-888--------------------------|
     ...    . . .    ...    . . .    ...    . . .

e|----------------------------------------------------------------|
B|----------------------------------------------------------------|
G|----------------------------------------------------------------|
D|-8-888-11-111111-6666-10-101010-8-888-11-111111-6/8-1010101010-|
A|-8-888-9-9-9-9-4-444-8-8-8-8--8-888-9-9-9-9-4/6-8888-8--|
D|-8-888---------------------------8-888--------------------------|
     ...    . . .    ...    . . .    ...    . . .


After the chorus repeat the same riff. I'm sorry that I don't have the outro.

Outro (??)
e|-----------------------------------------------------------|
B|-----------------------------------------------------------|
G|-----------------------------------------------------------|
D|-----------------------------------------------------------|
A|-----------------------------------------------------------|
D|-----------------------------------------------------------|
Comments