Reset - Everyday Chords & Tabs

 

Everyday Chords & Tabs

Reset Chords & Tabs

Version: 1 Type: Tab 0 ratings
1 star 2 stars 3 stars 4 stars 5 stars
comments

Everyday Tab

===========================================================
	Artist: Reset
	  Song: Everyday
	 Album: No Worries
===========================================================

Tabbed: TheMutts @ Ultimate-Guitar.com
Email: st_jimmy_themutts@yahoo.com

Tuning: Standard

----------------------
Intro
----------------------

|---------------------------|
|---------------------------|
|--7-7-7-7-7-7--------------|
|--7-7-7-7-7-7--7-7-5-5-5-4-|
|--5-5-5-5-5-5--------------|
|---------------------------|
     PM------|
[ Tab from: http://www.guitartabs.cc/tabs/r/reset/everyday_tab.html ]
|---------------------------------------------------|
|--------------9-9-7-7-5-/9-9-9-9-9p7-5h7p5-3h5p3-2-|
|--/7-7-7-7-7---------------------------------------|
|---------------------------------------------------|
|---------------------------------------------------|
|---------------------------------------------------|

----------------------
Verse
----------------------

|---------|
|---------|
|--7---5--|
|--7---5--|these are the only 2 chords,
|--5---3--|repeat as needed
|---------|

----------------------
Chorus
----------------------

|--------------|
|--------------|
|--7-----5-----|
|--7--7--5--9--|
|--5--7--3--9--|
|-----5-----7--|
Comments