Reset - Double Cross Chords & Tabs

 

Double Cross Chords & Tabs

Reset Chords & Tabs

Version: 3 Type: Tab 0 ratings
1 star 2 stars 3 stars 4 stars 5 stars
comments

Double Cross Tab

Tabbed by: Jmage : jmage1@hotmail.com

Ok, this is my first tab, so go easy on me... I searched the web for this song
but nothing came out except the intro and the solo, so I decided to try to tab
it and, this is what I think of this song.

Author: Reset
Song: Double Cross (first Path)
x= PM
^=Harmonic


-----7^---------------------------------------|-------------------------------
------7^--------------------------------------|-------------------------------
-7-7---7^7-777-7--7-7-7-5-555-5-55-9-999-7-77-|-------------------------------
-7-7-----7-777-7--------5-555-5-55-9-999-7-77-|-2x----------------------------
-5-5-----5-555-5--------3-333-3-33-7-777-5-55-|-------------------------------
-----------xxx------------xxx--------xxx------|-------------------------------
 0:00 #1                                                                      

------------------------------------------------------------------------------
------------------------------------------------------------------------------
-7-777-7-777-7-7-7-777-7-777-7-5-77-9-999-9-99-7-777-9-99-7-5-----------------
-7-777-7-777-7-7-7-777-7-777-7-5-77-9-999-9-99-7-777-9-99-7-5-----------------
-5-555-5-555-5-5-5-555-5-555-5-3-55-7-777-7-77-5-555-7-77-5-3-----------------
---xxx---xxx-------xxx---xxx----------xxx--------xxx--------------------------
 0:10 #2                                                                      

------------------------------------------------------------------------------
------------------------------------------------------------------------------
-5-55-5-55-4-5-55-5-7-9----9--9-11-12-----------------------------------------
-5-55-5-55-4-5-55-5-7-9----9--9-11-12-----------------------------------------
-3-33-3-33-2-3-33-3-5-7----7--7-9--10-----------------------------------------
---xx---xx-----xx-------------------------------------------------------------
 0:20 #2.2                                                                    

------------------------------------------------------------------------------
------------------------------------------------------------------------------
-777-7-777-7-77---------------------------------------------------------------
-777-7-777-7-77-7-7-7-7-5-5-55-5-55-5-4-4-5-5---------------------------------
-555-5-555-5-55-7-7-7-7-5-5-55-5-55-5-4-4-5-5---------------------------------
-xxx---xxx---xx-5-5-5-5-3-3-33-3-33-3-2-2-3-3---------------------------------
 0:25 #3                    xx   xx                                           

------------------------------------------------------------------------------
------------------------------------------------------------------------------
-7-7-77-7-77-7----------------------------------------------------------------
-7-7-77-7-77-7-7-7-7-7-5-5-2-2---4----5---------------------------------------
-5-5-55-5-55-5-7-7-7-7-5-5-2-2---4----5---------------------------------------
-----xx---xx---5-5-5-5-3-3-0-0---2----3---------------------------------------
 0:35 #3.2                                                                    

------------------------------------------------------------------------------
------------------------------------------------------------------------------
-7-777-7-7-7-7-777-7-7-7-111111111111111111111111-----------------------------
-7-777-7-7-7-7-777-7-7-7-1111111111111111111111119-999-9-9-9-9-999-9-9-9-5----
-5-555-5-5-5-5-555-5-5-5-9-999-9-9-9-9-999-9-9-9-9-999-9-9-9-9-999-9-9-9-5----
---xxx---------xxx---------xxx---------xxx-------7-777-7-7-7-7-777-7-7-7-3----
 0:45 #4                                           xxx         xxx            

------------------------------------------------------------------------------
------------------------------------------------------------------------------
------------------------------------------------------------------------------
-555-5-5-5-5-555-5-555-5------------------------------------------------------
-555-5-5-5-5-555-5-555-5------------------------------------------------------
-333-3-3-3-3-333-3-333-3------------------------------------------------------
 xxx         xxx   xxx                                                        

------------------------------------------------------------------------------
------------------------------------------------------------------------------
-7-777-7-7-7-7-777-7-7-7------------------------------------------------------
-7-777-7-7-7-7-777-7-7-7-9-999-9-9-9-9-999-9-9-9-7-777-7-7-7-7-777-7-7-7-11---
-5-555-5-5-5-5-555-5-5-5-9-999-9-9-9-9-999-9-9-9-7-777-7-7-7-7-777-7-7-7-9----
-------------------------7-777-7-7-7-7-777-7-7-7-5-555-5-5-5-5-555-5-5-5------
 0:55 #4.2                                                                    

------------------------------------------------------------------------------
------------------------------------------------------------------------------
------------------------------------------------------------------------------
-1111111111111111111111-------------------------------------------------------
-999-9-9-9-9-999-9-9-9--------------------------------------------------------
------------------------------------------------------------------------------
                                                                              

-----7^---------------------|-------------------------------------------------
------7^--------------------|-------------------------------------------------
-7-7---7^-------------------|-------------------------------------------------
-7-7----7^7-7-7-7-5-5-5-9-7-|-x4----------------------------------------------
-5-5------7-7-7-7-5-5-5-9-7-|--------3-5-3------------------------------------
----------5-5-5-5-3-3-3-7-5-|----3-5-------5-3-5------------------------------
 1:05 #5                         Very NOT Sure of that one...                 

------------------------------------------------------------------------------
------------------------------------------------------------------------------
------------------------------------------------------------------------------
------------------------------------------------------------------------------
------------------------------------------------------------------------------
------------------------------------------------------------------------------
 1:25  just redo #3                                                           
[ Tab from: http://www.guitartabs.cc/tabs/r/reset/double_cross_tab_ver_3.html ]
------------------------------------------------------------------------------
------------------------------------------------------------------------------
------------------------------------------------------------------------------
------------------------------------------------------------------------------
------------------------------------------------------------------------------
------------------------------------------------------------------------------
 1:45 just redo #4                                                            

------------------------------------------------------------------------------
------------------------------------------------------------------------------
------------------------------------------------------------------------------
------------------------------------------------------------------------------
------------------------------------------------------------------------------
------------------------------------------------------------------------------
 2:05 just redo #5 without the rest.                                          

--------------------------------------------------------|---------------------
--------------------------------------------------------|---------------------
-7-777-7------------------------------------------------|---------------------
-7-777-7-7-7-7-9-999-9-4-4-4-5-555-5-2-4-4-4-5-555-5-2-7|2x--9--7--5----------
-5-555-5-7-7-7-9-999-9-4-4-4-5-555-5-2-4-4-4-5-555-5-2-7|----9--7--5----------
---------5-5-5-7-777-7-2-2-2-3-333-3-0-2-2-2-3-333-3-0-5|----7--5--3----------
 2:25 solo.... not able to tab it.  But here the other guitar.  #6            

-5----------------------------------------------------------------------------
--5---------------------------------------------------------------------------
---5--------------------------------------------------------------------------
------------------------------------------------------------------------------
------------------------------------------------------------------------------
------------------------------------------------------------------------------
 2:55                                                                         

------------------------------------------------------------------------------
------------------------------------------------------------------------------
-7-7-77-7-77-7-77-7-----------------------------------------------------------
-7-7-77-7-77-7-77-77-7-77-7-77-7-77-7-5-5-55-5-55-5-55-5-4-5-7----------------
-5-5-55-5-55-5-55-57-7-77-7-77-7-77-7-5-5-55-5-55-5-55-5-4-5-7----------------
-------------------5-5-55-5-55-5-55-5-3-3-33-3-33-3-33-3-2-3-5----------------
 3:07 #7                                                                      

------------------------------------------------------------------------------
------------------------------------------------------------------------------
-7-777-7-7-7-7-777-7-7-7-111111111111111111111111-----------------------------
-7-777-7-7-7-7-777-7-7-7-1111111111111111111111119-999-9-9-9-9-999-9-9-9-12---
-5-555-5-5-5-5-555-5-5-5-9-999-9-9-9-9-999-9-9-9-9-999-9-9-9-9-999-9-9-9-12---
-------------------------------------------------7-777-7-7-7-7-777-7-7-7-10---
 3:17 #8                                                                      

------------------------------------------------------------------------------
------------------------------------------------------------------------------
------------------------------------------------------------------------------
-121212-12-12-12-12-121212-12-121212-12---------------------------------------
-121212-12-12-12-12-121212-12-121212-12---------------------------------------
-101010-10-10-10-10-101010-10-101010-10---------------------------------------
                                                                              

------------------------------------------------------------------------------
------------------------------------------------------------------------------
-7-777-7-7-7-7-777-7-7-7-------------------------------------------------12---
-7-777-7-7-7-7-777-7-7-7-4-444-4-4-4-4-444-4-4-4-9-999-9-9-9-9-999-9-9-9-12---
-5-555-5-5-5-5-555-5-5-5-4-444-4-4-4-4-444-4-4-4-9-999-9-9-9-9-999-9-9-9-10---
-------------------------2-222-2-2-2-2-222-2-2-2-7-777-7-7-7-7-777-7-7-7------
 3:27 #8.2                                                                    

------------------------------------------------------------------------------
------------------------------------------------------------------------------
-121212-12-12-12-12-121212-12-12-12-------------------------------------------
-121212-12-12-12-12-121212-12-12-12-------------------------------------------
-101010-10-10-10-10-101010-10-10-10-------------------------------------------
------------------------------------------------------------------------------
                                                                              

------------------------------------------------------------------------------
------------------------------------------------------------------------------
-------------------------7-777-7-7-7-7-777-7-7-7------------------------------
-5-555-5-5-5-5-555-5-5-5-7-777-7-7-7-7-777-7-7-7-7-777-7-7-7-7-777-7-7-7-5----
-5-555-5-5-5-5-555-5-5-5-5-555-5-5-5-5-555-5-5-5-7-777-7-7-7-7-777-7-7-7-5----
-3-333-3-3-3-3-333-3-3-3-------------------------5-555-5-5-5-5-555-5-5-5-3----
 3:37 #9                                                                      

-------------------------|----------------------------------------------------
-------------------------|----------------------------------------------------
-------------------------|----------------------------------------------------
-555-5-5-5-7-777-7-7-7---|-2x-55-55-5-55-55-5---------------------------------
-555-5-5-5-7-777-7-7-7---|----55-55-5-55-55-5---------------------------------
-333-3-3-3-5-555-5-5-5---|----33-33-3-33-33-3---------------------------------
                              3:54 variation for the second time              

------------------------------------------------------------------------------
------------------------------------------------------------------------------
-77-777-99-999-11111111212-1212-119-7-----------------------------------------
-77-777-99-999-11111111212-1212-119-7-----------------------------------------
-55-555-77-777-99-999-1010-1010-9-7-5-----------------------------------------
------------------------------------------------------------------------------
 3:57   End of the first path...
Comments