Reo Speedwagon - Ridin The Storm Out Chords & Tabs

 

Ridin The Storm Out Chords & Tabs

Reo Speedwagon Chords & Tabs

Version: 2 Type: Tab 0 ratings
1 star 2 stars 3 stars 4 stars 5 stars
comments

Ridin The Storm Out Tab

-----------------------------------------------------------------------------
                   Ridin' The Storm Out Tab by Reo Speedwagon                
-----------------------------------------------------------------------------

Tabbed By: Alex Miller
Email Address: Ram13093@aol.com

Tuning: Standard

Main Riff
e|--------------|
B|-0h1-1-3-5-3--|
G|-0h2-2-4-5-4--| 
D|-0h2-2-4-5-4--|
A|--------------|
E|--------------|
[ Tab from: http://www.guitartabs.cc/tabs/r/reo_speedwagon/ridin_the_storm_out_tab_ver_2.html ]
There is also a variation of the main riff that goes like this.

e|--------------|
B|-0h1-1-3-5-7--|
G|-0h2-2-4-5-7--|
D|-0h2-2-4-5-7--|
A|--------------|
E|--------------|

Chorus
e|---------------|
B|---------------|
G|---------------|
D|-3-3-55-5-7-5--|
A|-3-3-55-5-7-5--|
E|-1-1-33-3-5-3--|

That's basiclly it. I'll add things I may have missed later.

Symbols:
h=hammer on
p=pull off
x=mute note
/=slide up
\=slidedown
+=harmonics
~=vibrato

=============================================================================
Comments