Reo Speedwagon - Keep On Loving You Chords & Tabs

 

Keep On Loving You Chords & Tabs

Reo Speedwagon Chords & Tabs

Version: 3 Type: Tab 0 ratings
1 star 2 stars 3 stars 4 stars 5 stars
comments

Keep On Loving You Tab

Reo Speedwagon
Keep On Loving You
This song is in standard tuning

Intro
----------------------------------------------------------------|
----------------------------------------------------------------|
----------------------------------------------------------------|
-3-3----------------------------------3-3--------3-3--------3-3-|
-3-3----------------------------------3-3--------3-3--------3-3-|
-1-1----------------------------------1-1--------1-1--------1-1-|
    You Should Of Know In My Eyes Babe
(There's a gap of about 8 secs between each set of chords)
[ Tab from: http://www.guitartabs.cc/tabs/r/reo_speedwagon/keep_on_loving_you_tab_ver_3.html ]
Mainbody
---------------------------------------------------------------------------|
---------------------------------------------------------------------------|
-----------------------------------------------------------7-7-7-7-7-7-7-7-|
-3-3-5-5-3-3-5-7-7-7-7-7-7-7-7-7-7-7-7-7-7-7-7-5-5-3-3-2-2-7-7-7-7-7-7-7-7-|
-3-3-5-5-3-3-5-7-7-7-7-7-7-7-7-7-7-7-7-7-7-7-7-5-5-3-3-2-2-5-5-5-5-5-5-5-5-|
-1-1-3-3-1-1-3-5-5-5-5-5-5-5-5-5-5-5-5-5-5-5-5-3-3-1-1-0-0-----------------|

Chorus
------------------------------------------------------------------|
------------------------------------------------------------------| x2
------------------------------------------------------------------|
-10-10-10-10-10-10-10-10-3-3-3-3-3-3-3-3-3-3-3-3-3-3-3-3-3-3-3-3--|
-10-10-10-10-10-10-10-10-3-3-3-3-3-3-3-3-3-3-3-3-3-3-3-3-3-3-3-3--|
-8-8-8-8-8-8-8-8-8-8-8-8---------1-1-1-1-1-1-1-1-1-1-1-1-1-1-1-1--|
 And          I'm        Going    To   Keep  On   Loving     You

---------------------------------------------|
---------------------------------------------|
-----------------------------5-5-5-5-5-5-5-5-|
-7-7-7-7-7-7-7-7-5-5-3-3-2-2-5-5-5-5-5-5-5-5-|
-7-7-7-7-7-7-7-7-5-5-3-3-2-2-3-3-3-3-3-3-3-3-|
-5-5-5-5-5-5-5-5-3-3-1-1-0-0-----------------|

List to the song for structure.
Comments