Reo Speedwagon - Keep On Loving You Chords & Tabs

 

Keep On Loving You Chords & Tabs

Reo Speedwagon Chords & Tabs

Version: 2 Type: Tab 0 ratings
1 star 2 stars 3 stars 4 stars 5 stars
comments

Keep On Loving You Tab

Artist: REO Speedwagon
Song: Keep on loving you

Feel free to use this tab for your own purpose

e--------------------------------------------------------|
b--15b17---15b17r15-13h15p13----13-----------------------|
g----------------------------14----14-15b17r15b17r15b17--|
d--------------------------------------------------------|
a--------------------------------------------------------|
E--------------------------------------------------------|
[ Tab from: http://www.guitartabs.cc/tabs/r/reo_speedwagon/keep_on_loving_you_tab_ver_2.html ]
e--------------------------------------------------|
b---------------18-18--18-18-------18-18--18-18----|
g-ps\\----15b17---------------15b17----------------|
d-ps\\---------------------------------------------|
a--------------------------------------------------|
E--------------------------------------------------|


e-----------15-15b17-15----15----15b17----15----15-18b20--|
b--------18-------------18----18-------18----18-----------|
g--15b17--------------------------------------------------|
d---------------------------------------------------------|
a---------------------------------------------------------|
E---------------------------------------------------------|

If you feel that this tab is wrong then e-mail me at kiss_rock@hotmail.com
Comments