Rentals - Getting Bye Chords & Tabs

 

Getting Bye Chords & Tabs

Rentals Chords & Tabs

Version: 1 Type: Bass Tab 0 ratings
1 star 2 stars 3 stars 4 stars 5 stars
comments

Getting Bye Bass Tab

   
Song: Getting Bye
Artist: The Rentals
Album: Seven more Minutes

Verses and in between verses
            G#  D#  C#  D#
        G-----------------------------------
        D-----------------------------------
        A------6-6-4-4-6-6------------------
        E--4-4------------------------------
[ Tab from: http://www.guitartabs.cc/tabs/r/rentals/getting_bye_btab.html ]
Chorus:     C#   G#   F    C#  G# D#
        G-----------------------------------
        D-----------------------------------
        A--4-4------------4-4-----6--------- 2x
        E-------4-4--1-1------4-4-----------

Bridge:    G#A C#G#A C#
        G---------------
        D---------------
        A------4-----4-- ?x
        E--4-5---4-5----
Comments