Rent - Your Eyes Chords & Tabs

 

Your Eyes Chords & Tabs

Rent Chords & Tabs

Version: 1 Type: Tab

Your Eyes Tab

   
-------------------------------------------------------------------------------
			     Rent - Your Eyes
-------------------------------------------------------------------------------
Tabbed by: Nelx

Hey all.. this is my first tab, but after watching the movie, i was inspired to learn
to play this song haha. its just the solo, but yeah... its awsome haha. Im pretty sure its
(Its the correct notes when you compare it to the actual song, but in that one scene
roger is playing it, his fingers arent playing it correctly lol =P) its simple enough.
recommend playing this WITH the music.. but yeah. haha its simple enough =D enjoy ^^

===============================================================================
[ Tab from: http://www.guitartabs.cc/tabs/r/rent/your_eyes_tab.html ]
e|--------------------------------------------------------------------------|
B|--~13-----------13~12-----------12~10--10-12-13-12-10-13------------10-12-|
G|----------9-12------------9-12----------------------------10~10--12-------|
D|-------10--------------10-------------------------------------------------|
A|--------------------------------------------------------------------------|
E|--------------------------------------------------------------------------|

e|------------------------------------------------------------~15~12--------|
B|-10----12------1/13---------13~12-----------12~10---10-12-13------~15-13--|
G|----12----9~9----------9-12------------9-12-------------------------------|
D|--------------------10--------------10------------------------------------|
A|--------------------------------------------------------------------------|
E|--------------------------------------------------------------------------|

e|----------|
B|~10-------|
G|----9~12--|
D|----------|
A|----------|
E|----------|

| /  slide up
|   slide down
| h  hammer-on
| p  pull-off
| ~  vibrato
| +  harmonic
| x  Mute note

===============================================================================