Rent - Santa Fe Chords & Tabs

 

Rent Chords & Tabs

Version: 1 Type: Bass Tab 0 ratings
1 star 2 stars 3 stars 4 stars 5 stars
comments

Santa Fe Bass Tab

   
                                SANTA FE - RENT
---------------------------------------------------------------------------------------------------------|
Tabbed by: t3h Flick!
Email: talek_cornish@hotmail.com

Tuning: standard (EADGBe)

K. So, I'll give a little prelude to the song. the other version of this isn't even for
This is a bass song, but I'll give you the bass riff and the guitar chords to go along
it :)
Cause this is like my fave song ever :)

K. Bass riff: It's pretty constant throughout the whole song.
Verse:
G|-----------8------------6--------------11---------------|
D|--------------------------7----------------14--12--11\7-|
A|---------9---9--------9--------------12--12--12--12-----|
E|--7----7-------7----7--------10---10------------------7-|

Aiight? It's hell, I know. But thats what goes on while angel and collins are talking. 
I'll give you the chords for guitar now.

B                        D
New York City! (uh huh.) Centre of the universe. (sing it, girl)
B                         D
Times are shitty, but I'm pretty sure they can't get worse. (I hear ya.)
B                                  D
It's a comfort to know, when you're singing the "Hit the Road Blues"
     B                                         D              N/C
That anywhere else you could possibly go after New York would be:
N/C
A Pleasure cruise.

B                              D
Now you're Talkin'. (collins's trademark evil laugh, lol muahaha)
         B                        D
Well I'm thwarted by a metaphysic puzzle
        B                              D
And I'm sick of gradin' papers, that I know.
    B                             D
I'm shouting in my sleep I need a muzzle
    B                              D
And all this misery pays no salary so

Alright. Now that I got the verse covered, I can honestly say the the bass riff in the
is REALLY hard to hear. So I just play it in easy notes and wing it through the way I
it goes. So its wrong, meh, this isn't supposed to be a score or something. :P

Chorus:
  Let's Open up a restaurant in   Santa Fe
   D             Aadd9        B
G|----------7------------------------------------------|
D|--------7---7----------7------------9-----------9----|
A|--5---5--------------7---7--------9---9-------9---9--|
E|---------------5---5--------7---7-------7---7--------|
   Sunny Santa Fe Would be Nice
    D            Aadd9        B
G|----------7------------------------------------------|
D|--------7---7----------7------------9-----------9----|
A|--5---5--------------7---7--------9---9-------9---9--|
E|---------------5---5--------7---7-------7---7--------|
   Let's Open up a Restaurant in Santa Fe
    D            Aadd9        B
G|----------7------------------------------------------|
D|--------7---7----------7------------9-----------9----|
A|--5---5--------------7---7--------9---9-------9---9--|
E|---------------5---5--------7---7-------7---7--------|
And leave this to the roaches and mice.
    D            Aadd9       F#           B
G|----------7-------------------------------------4----|
D|--------7---7----------7------------4---------4---4--|
A|--5---5--------------7---7--------4---4--2--2--------|
E|---------------5---5--------2---2--------------------|
  Ohhhhhhhhhhhhhhhhhhhhhhhhhhhhhhhhhhhhhhhhhhhhhhhhhhh
    Dadd9        Eadd9        A            Dadd9
G|----------7------------9-------------------------7---|
D|--------7---7--------9---9----------7----------7---7-|
A|--5---5--------7---7--------------7---7--5---5-------|
E|----------------------------5---5--------------------|
  Ohhhhhhhhhhhhhhhhhhhhhhhhhhhhhhhhhhhhhhhhhhhhhhhhhhh
    G           F#           B                        D
G|------------------------------------8----------6-------------11---------------|
D|----------5------------4-------------------------7---------------14--12--11\7-|
A|--------5---5--------4---4--------9---9-------9------------12--12--12--12-----|
E|--3---3--------2---2-------7---7-------7---7--------10--10------------------7-|

Here it goes back to the main chorus riff. the thing I tabbed out at the front. err.
whatever. K. So bass players, keep doing that bassy thing that you do at this point. More
below.

B                        D
You teach? Yeah, I teach Computer age philosophy
        B                                 D
When my students would rather watch T.V.? America. (America)
         Bsus2                         D
You're a sensitive aesthete, Brush the sauce onto the meat
        Bsus2                        D
You can make the menu sparkle with a rhyme
        Bm9                       Dadd9
You can drum a gentle drum, I can seat guests as they come
         Bm9                     Dadd9
Chatting not about Heidegger but wine.

ok. Another verse successfully over with. Let's try not to let me ramble too much again, 
onto the next chorus!
[ Tab from: http://www.guitartabs.cc/tabs/r/rent/santa_fe_btab.html ]
  Let's open up a restaurant in   Santa Fe
   D             Aadd9        B
G|----------7------------------------------------------|
D|--------7---7----------7------------9-----------9----|
A|--5---5--------------7---7--------9---9-------9---9--|
E|---------------5---5--------7---7-------7---7--------|
 Our labours would reap financial gain
    D            Aadd9        B
G|----------7------------------------------------------|
D|--------7---7----------7------------9-----------9----|
A|--5---5--------------7---7--------9---9-------9---9--|
E|---------------5---5--------7---7-------7---7--------|
   We'll open up a restaurant in Santa Fe
    D            Aadd9        B
G|----------7------------------------------------------|
D|--------7---7----------7------------9-----------9----|
A|--5---5--------------7---7--------9---9-------9---9--|
E|---------------5---5--------7---7-------7---7--------|
And save from devastation our brains (save our brains)
    D            Aadd9       F#           B7
G|----------7-------------------------------------2----|
D|--------7---7----------7------------4---------4---4--|
A|--5---5--------------7---7--------4---4--2--2--------|
E|---------------5---5--------2---2--------------------|

We'll pack up all our junk and fly so far away
   Dadd9         Aadd9        B
G|----------7------------------------------------------|
D|--------7---7----------7------------9-----------9----|
A|--5---5--------------7---7--------9---9-------9---9--|
E|---------------5---5--------7---7--------7--7--------|
Devote ourselves to projects that sell
   Dadd9         Aadd9        B
G|----------7------------------------------------------|
D|--------7---7----------7------------9-----------9----|
A|--5---5--------------7---7--------9---9-------9---9--|
E|---------------5---5--------7---7--------7--7--------|
We'll open up a restaurant in Santa Fe
   Dadd9         Aadd9        B
G|----------7------------------------------------------|
D|--------7---7----------7------------9-----------9----|
A|--5---5--------------7---7--------9---9-------9---9--|
E|---------------5---5--------7---7--------7--7--------|
Forget this cold bohemian hell.
   Dadd9         Aadd9        F#           B
G|----------7-------------------------------------4---|
D|--------7---7----------7------------4---------4---4-|
A|--5---5--------------7---7--------4---4--2--2-------|
E|---------------5---5--------2---2-------------------|
Ohhhhhhhhhhhhhhhhhh
    Dadd9        Eadd9       Aadd9         Dadd9
G|----------7------------9------------------------7---|
D|--------7---7--------9---9----------7---------7---7-|
A|--5---5--------7---7--------------7---7--5--5-------|
E|----------------------------5---5-------------------|
Ohhhhhhhhhhhhhhhhhh          (whoa oh oh oh whoa oh oh)
     Gadd9       F#            B
G|------------------------------------4-----------4---|
D|----------5------------4----------4---4-------4---4-|
A|--------5---5--------4---4--2---2--------2--2-------|
E|--3---3--------2---2--------------------------------|
Ohhhhhhhhhhhhhhhhhh
    Dadd9        Eadd9       Aadd9         Dadd9
G|----------7------------9------------------------7---|
D|--------7---7--------9---9----------7---------7---7-|
A|--5---5--------7---7--------------7---7--5--5-------|
E|----------------------------5---5-------------------|
Ohhhhhhhhhhhhhhhhhh
    Gadd9       F#            Badd9
G|------------------------------------8-----------8---|
D|----------5------------4----------------------------|
A|--------5---5--------4---4--------9---9-------9---9-|
E|--3---3--------2---2--------7---7-------7---7-------|
    yeah yeah yeah        mmhmm
   Dadd9
G|-----------11---------------|
D|---------------14--12--11---|
A|---------12--12--12--12--12-|
E|--10--10--------------------|
   *strange nasal sounds*
   Badd9                       Dadd9
G|----------8-----------6-------------11---------------|
D|------------------------7---------------14--12--11\7-|
A|--------9---9-------9-------------12--12--12--12-----|
E|--7---7-------7---7--------10--10--------------------|

   Badd9                       Dadd9
G|----------8-----------6-------------11---------------|
D|------------------------7---------------14--12--11\7-|
A|--------9---9-------9-------------12--12--12--12-----|
E|--7---7-------7---7--------10--10--------------------|

   Do    you   know   the    way        To Santa Fe?
   Badd9                       Dadd9
G|----------8-----------6-------------11---------------|
D|------------------------7---------------14--12--11\7-|
A|--------9---9-------9-------------12--12--12--12-----|
E|--7---7-------7---7--------10--10--------------------|

         You know; tumbleweeds...   prairie dawwwwwgs.
   Badd9                       Dadd9 (ritando, slow the fuck down lol)
G|----------8-----------6-------------11---------------|
D|------------------------7---------------14--12--11\7-|
A|--------9---9-------9-------------12--12--12--12-----|
E|--7---7-------7---7--------10--10--------------------|

   Yeaaah.
   Bmadd9
G|---------|
D|---------|
A|--((2))--|
E|---------|


YAY!! One rent song tabbed, like 6 more to go (well, of the ones i know there's a few 
:P)
I hope you enjoyed this... I dunno how well the stupid chord things will come up so I'll 
and define them all for you :)

CHORD DEFINITIONS!!!
    B    D    N/C     Aadd9    F#    Dadd9   Eadd9    A   G   Badd9
e|--2----2-----x--------0------2-------0-------0------0---3-----9----|
B|--4----3-----x--------2------2-------3-------0------2---0-----7----|
G|--4----2-----x--------4------3-------2-------1------2---0-----8----|
D|--4----0-----x--------2------4-------4-------4------2---0-----9----|
A|--2----0-----x--------0------4-------5-------2------0---2-----x----|
E|--x----x-----x--------x------2-------x-------0------x---3-----x----|

MORE DEFINITIONS!!!
   Bsus2    Bm9    B7    Gadd9   Bmadd9
e|---9-------2-----2-------3-------9-----|
B|---8-------2-----0-------0-------7-----|
G|---7-------2-----2-------2-------7-----|
D|---9-------0-----1-------0-------9-----|
A|---x-------2-----2-------2-------9-----|
E|---x-------x-----x-------3-------7-----|

whooo. If you think you found something better, email me @ talek_cornish@hotmail.com or
or something. hope I've helped someone, and if this pops up up anywhere other than
guitar, I didn't post it, so that n00b st0l3z0rz from me. Lol.

~7alFl!ck
Comments