Rent - Rent Chords & Tabs

 

Rent Chords & Tabs

Version: 3 Type: Tab 0 ratings
1 star 2 stars 3 stars 4 stars 5 stars
comments

Rent Tab

   
-------------------------------------------------------------------------------
			     RENT- Rent
-------------------------------------------------------------------------------
Tabbed by: t3h Fl!ck
Email: talek_cornish@hotmail.com

Tuning: standard (EADGBe)

aiiiiight. second rent song I'm gonna tab out for ya.
I just loooove the intro and stuff. :) so here it is, in both guitar parts :)
the catch is when you're reading the guitar 2 or the power chords... they should be in 
notes... but i wrote them in quarters to save time and energy... so you'll have to double 
all the power chords and play twice as many in the amount i've written :P

4 bar snare drum intro

Guitar 1 (electric w distortion):
e|--2-3-2---2-3-2-------3---2--3---2-3-2---2-3-2-------3---2--3-|
B|--------1-------1---1---1--------------1-------1---1---1------|
G|--------------------------------------------------------------|
D|--------------------------------------------------------------|
A|--------------------------------------------------------------|
E|--------------------------------------------------------------|

e|--2-3-2---2-3-2-------3---2--3---2-3-2---2-3-2-------3---2--3------3---2-3-|
B|-1------1-------1---1---1--------------1-------1---1---1------1--1---1-----|
G|---------------------------------------------------------------------------|
D|---------------------------------------------------------------------------|
A|---------------------------------------------------------------------------|
E|---------------------------------------------------------------------------|

Guitar 2 (electric w distortion):
e|----------------------------------------------------------------------------------|
B|----------------------------------------------------------------------------------|
G|--8--8--8--8--10--10--10--10--5--5--5--5--8--8--8--8--10--10--10--10--5--5--5--5--|
D|--8--8--8--8--10--10--10--10--5--5--5--5--8--8--8--8--10--10--10--10--5--5--5--5--|
A|--6--6--6--6--8---8---8---8---3--3--3--3--6--6--6--6--8---8---8---8---3--3--3--3--|
E|----------------------------------------------------------------------------------|

e|----------------------------------------------------------------------------------------------|
B|----------------------------------------------------------------------------------------------|
G|--8--8--8--8--10--10--10--10--5--5--5--5--8--8--8--8--10--10--10--10--5--5--5--5--5--5--5--5--|
D|--8--8--8--8--10--10--10--10--5--5--5--5--8--8--8--8--10--10--10--10--5--5--5--5--5--5--5--5--|
A|--6--6--6--6--8---8---8---8---3--3--3--3--6--6--6--6--8---8---8---8---3--3--3--3--3--3--3--3--|
E|----------------------------------------------------------------------------------------------|

Both guitars (still w dist.):
        How do you document real life, when real life's getting more like fiction each day?
e|-------------------------------------------------------------------------------|
B|-------------------------------------------------------------------------------|
G|-P.M.--5--5--5--5--5--5--5--5--5--5--5--5--5--5--5--5--7--7--7--7--7--7--7--7--|
D|-P.M.--5--5--5--5--5--5--5--5--5--5--5--5--5--5--5--5--7--7--7--7--7--7--7--7--|
A|-P.M.--3--3--3--3--3--3--3--3--3--3--3--3--3--3--3--3--5--5--5--5--5--5--5--5--|
E|-------------------------------------------------------------------------------|

Headlines, bread lines blow my mind and now this deadline; eviction or pay.
e|-------------------------------------------------------------------------------|
B|-------------------------------------------------------------------------------|
G|-P.M.--5--5--5--5--5--5--5--5--5--5--5--5--5--5--5--5--7--7--7--7--9--9--9--9--|
D|-P.M.--5--5--5--5--5--5--5--5--5--5--5--5--5--5--5--5--7--7--7--7--9--9--9--9--|
A|-P.M.--3--3--3--3--3--3--3--3--3--3--3--3--3--3--3--3--5--5--5--5--7--7--7--7--|
E|-------------------------------------------------------------------------------|
      (scream) RENT!
e|--3-----3-----3----|
B|--3-----4-----3----|
G|--3-----3-----3----|
D|--5-----5-----5----|
A|--5-----5-----5----|
E|--3-----3-----3----|

    How do you write a song when the chords sound wrong
e|---------------------------------------------------|
B|---------------------------------------------------|
G|-pm-5--5--5--5--5--5--5--5--5--5--5--5--5--5--5--5-|
D|-pm-5--5--5--5--5--5--5--5--5--5--5--5--5--5--5--5-|
A|-pm-3--3--3--3--3--3--3--3--3--3--3--3--3--3--3--3-|
E|---------------------------------------------------|
    Though they once sounded right and rare?
e|---------------------------------------------------|
B|---------------------------------------------------|
G|-pm-5--5--5--5--5--5--5--5--7--7--7--7--7--7--7--7-|
D|-pm-5--5--5--5--5--5--5--5--7--7--7--7--7--7--7--7-|
A|-pm-3--3--3--3--3--3--3--3--5--5--5--5--5--5--5--5-|
E|---------------------------------------------------|
    When the notes are sour where is the power
e|---------------------------------------------------|
B|---------------------------------------------------|
G|-pm-5--5--5--5--5--5--5--5--5--5--5--5--5--5--5--5-|
D|-pm-5--5--5--5--5--5--5--5--5--5--5--5--5--5--5--5-|
A|-pm-3--3--3--3--3--3--3--3--3--3--3--3--3--3--3--3-|
E|---------------------------------------------------|
     You  once  had  to       ignite     the         air?
e|---------------------------------------------------------------------------|
B|---------------------------------------------------------------------------|
G|-pm-5--5--5--5--5--5--5--5--7--7--7--7--7--7--7--7--9--9--9--9--9--9--9--9-|
D|-pm-5--5--5--5--5--5--5--5--7--7--7--7--7--7--7--7--9--9--9--9--9--9--9--9-|
A|-pm-3--3--3--3--3--3--3--3--5--5--5--5--5--5--5--5--7--7--7--7--7--7--7--7-|
E|---------------------------------------------------------------------------|
   We're hungry and frozen some lives that we've chosen
e|---------------------------------------------------|
B|---------------------------------------------------|
G|-pm-10-10-10-10-10-10-10-10-5--5--5--5--5--5--5--5-|
D|-pm-8--8--8--8--8--8--8--8--5--5--5--5--5--5--5--5-|
A|-pm-8--8--8--8--8--8--8--8--3--3--3--3--3--3--3--3-|
E|---------------------------------------------------|

  how we gonna pay...               how we gonna pay...
Guitar 1:
e|--------------------------------------------------------------------------|
B|--------------------------------------------------------------------------|
G|--------------------------------------------------------------------------|
D|--12----12-13----13-14----14-13----13-12----12-13----13-14----14-13----13-|
A|------13-------13-------13-------13-------13-------13-------13-------13---|
E|----15-------15--------15-------15------15-------15-------15-------15-----|
Guitar 2:
e|--3----3----3----3----3----3----3----3----3----3----3----3----3----3----3----3-|
B|--3----3----4----4----5----5----4----4----3----3----4----4----5----5----4----4-|
G|--3----3----3----3----3----3----3----3----3----3----3----3----3----3----3----3-|
D|--5----5----5----5----5----5----5----5----5----5----5----5----5----5----5----3-|
A|--5----5----5----5----5----5----5----5----5----5----5----5----5----5----5----5-|
E|--3----3----3----3----3----3----3----3----3----3----3----3----3----3----3----3-|

  how we gonna pay...                     last  year's   rent?
Guitar 1:
e|-----------------------------------------11-----13------12--------|
B|-----------------------------------------11-----13------13--let---|
G|-----------------------------------------12-----14------12--ring--|
D|--12----12-13----13-14----14-13----13----13-----15------14--------|
A|------13-------13-------13-------13-------------------------------|
E|----15-------15--------15-------15--------------------------------|
Guitar 2:
e|--3----3----3----3----3----3----3----3----3------5------0---------|
B|--3----3----4----4----5----5----4----4----4------6------1---------|
G|--3----3----3----3----3----3----3----3----3------5------0--let----|
D|--5----5----5----5----5----5----5----5----5------7------2--ring---|
A|--5----5----5----5----5----5----5----5----6------8------3---------|
E|--3----3----3----3----3----3----3----3----6------8------3---------|

intro again...
Guitar 1:
e|--2-3-2---2-3-2-------3---2--3---2-3-2---2-3-2-------3---2--3-|
B|--------1-------1---1---1--------------1-------1---1---1------|
G|--------------------------------------------------------------|
D|--------------------------------------------------------------|
A|--------------------------------------------------------------|
E|--------------------------------------------------------------|

e|--2-3-2---2-3-2-------3---2--3---2-3-2---2-3-2-------3---2--3------3---2-3-|
B|-1------1-------1---1---1--------------1-------1---1---1------1--1---1-----|
G|---------------------------------------------------------------------------|
D|---------------------------------------------------------------------------|
A|---------------------------------------------------------------------------|
E|---------------------------------------------------------------------------|

Guitar 2:
e|----------------------------------------------------------------------------------|
B|----------------------------------------------------------------------------------|
G|--8--8--8--8--10--10--10--10--5--5--5--5--8--8--8--8--10--10--10--10--5--5--5--5--|
D|--8--8--8--8--10--10--10--10--5--5--5--5--8--8--8--8--10--10--10--10--5--5--5--5--|
A|--6--6--6--6--8---8---8---8---3--3--3--3--6--6--6--6--8---8---8---8---3--3--3--3--|
E|----------------------------------------------------------------------------------|

e|----------------------------------------------------------------------------------------------|
B|----------------------------------------------------------------------------------------------|
G|--8--8--8--8--10--10--10--10--5--5--5--5--8--8--8--8--10--10--10--10--5--5--5--5--5--5--5--5--|
D|--8--8--8--8--10--10--10--10--5--5--5--5--8--8--8--8--10--10--10--10--5--5--5--5--5--5--5--5--|
A|--6--6--6--6--8---8---8---8---3--3--3--3--6--6--6--6--8---8---8---8---3--3--3--3--3--3--3--3--|
E|----------------------------------------------------------------------------------------------|

    How do you start a fire when there's nothing to burn
e|---------------------------------------------------|
B|---------------------------------------------------|
G|-pm-5--5--5--5--5--5--5--5--5--5--5--5--5--5--5--5-|
D|-pm-5--5--5--5--5--5--5--5--5--5--5--5--5--5--5--5-|
A|-pm-3--3--3--3--3--3--3--3--3--3--3--3--3--3--3--3-|
E|---------------------------------------------------|
     And it feels like something's stuck in your flue?

e|----------------------------------------------------|
B|----------------------------------------------------|
G|-pm-5--5--5--5--5--5--5--5--7--7--7--7--7--*7--6--7-|*un-mute-these
D|-pm-5--5--5--5--5--5--5--5--7--7--7--7--7--*7--6--7-|*un-mute-these
A|-pm-3--3--3--3--3--3--3--3--5--5--5--5--5--*5--4--5-|*un-mute-these
E|----------------------------------------------------|
 How can you generate heat when you can't feel your feet
e|---------------------------------------------------|
B|---------------------------------------------------|
G|-pm-5--5--5--5--5--5--5--5--5--5--5--5--5--5--5--5-|
D|-pm-5--5--5--5--5--5--5--5--5--5--5--5--5--5--5--5-|
A|-pm-3--3--3--3--3--3--3--3--3--3--3--3--3--3--3--3-|
E|---------------------------------------------------|
     And they're             turn   -    ing         blue?
e|---------------------------------------------------------------------------|
B|---------------------------------------------------------------------------|
G|-pm-5--5--5--5--5--5--5--5--7--7--7--7--7--7--7--7--9--9--9--9--9--9--9--9-|
D|-pm-5--5--5--5--5--5--5--5--7--7--7--7--7--7--7--7--9--9--9--9--9--9--9--9-|
A|-pm-3--3--3--3--3--3--3--3--5--5--5--5--5--5--5--5--7--7--7--7--7--7--7--7-|
E|---------------------------------------------------------------------------|
   You light up a mean blaze with post and screen plays
e|---------------------------------------------------|
B|---------------------------------------------------|
G|-pm-10-10-10-10-10-10-10-10-5--5--5--5--5--5--5--5-|
D|-pm-8--8--8--8--8--8--8--8--5--5--5--5--5--5--5--5-|
A|-pm-8--8--8--8--8--8--8--8--3--3--3--3--3--3--3--3-|
E|---------------------------------------------------|

  how we gonna pay...               how we gonna pay...
Guitar 1:
e|--------------------------------------------------------------------------|
B|--------------------------------------------------------------------------|
G|--------------------------------------------------------------------------|
D|--12----12-13----13-14----14-13----13-12----12-13----13-14----14-13----13-|
A|------13-------13-------13-------13-------13-------13-------13-------13---|
E|----15-------15--------15-------15------15-------15-------15-------15-----|
Guitar 2:
e|--3----3----3----3----3----3----3----3----3----3----3----3----3----3----3----3-|
B|--3----3----4----4----5----5----4----4----3----3----4----4----5----5----4----4-|
G|--3----3----3----3----3----3----3----3----3----3----3----3----3----3----3----3-|
D|--5----5----5----5----5----5----5----5----5----5----5----5----5----5----5----3-|
A|--5----5----5----5----5----5----5----5----5----5----5----5----5----5----5----5-|
E|--3----3----3----3----3----3----3----3----3----3----3----3----3----3----3----3-|

  how we gonna pay...                     last  year's   rent?
Guitar 1:
e|-----------------------------------------11-----13------12--------|
B|-----------------------------------------11-----13------13--let---|
G|-----------------------------------------12-----14------12--ring--|
D|--12----12-13----13-14----14-13----13----13-----15------14--------|
A|------13-------13-------13-------13-------------------------------|
E|----15-------15--------15-------15--------------------------------|
Guitar 2:
e|--3----3----3----3----3----3----3----3----3------5------0---------|
B|--3----3----4----4----5----5----4----4----4------6------1---------|
G|--3----3----3----3----3----3----3----3----3------5------0--let----|
D|--5----5----5----5----5----5----5----5----5------7------2--ring---|
A|--5----5----5----5----5----5----5----5----6------8------3---------|
E|--3----3----3----3----3----3----3----3----6------8------3---------|

interlude... this is for two guitars... if you're daring you can do both :P

Guitar 1:
e|--8----7----7--8--7-----------------------------------------|
B|---------6------------8-------------------------------------|
G|-------------------------7---7--9---7-----------------9--7--|
D|-------------------------------------10--9--7--9--10--------|
A|------------------------------------------------------------|
E|------------------------------------------------------------|

Guitar 2:
e|------------------------------------------------------------|
B|------------------------------------------------------------|
G|--9----7----7--9--7-----------------------------------------|
D|---------6------------9------9-10---9-7-----------7-10--9---|
A|------------------------10--------------10--8-10------------|
E|------------------------------------------------------------|

or for one part (slightly challenging) :)
e|--8----7----7--8--7-----------------------------------------|
B|---------6------------8-------------------------------------|
G|--9----7----7--9--7------7---7--9---7-5-----------5--9--7---|
D|---------6------------9------9-10---9-7--9--7--9--7-10--9---|
A|------------------------10--------------10--8-10------------|
E|------------------------------------------------------------|
[ Tab from: http://www.guitartabs.cc/tabs/r/rent/rent_tab_ver_3.html ]
    How do you stay on your feet when on every street
e|---------------------------------------------------|
B|---------------------------------------------------|
G|-pm-5--5--5--5--5--5--5--5--5--5--5--5--5--5--5--5-|
D|-pm-5--5--5--5--5--5--5--5--5--5--5--5--5--5--5--5-|
A|-pm-3--3--3--3--3--3--3--3--3--3--3--3--3--3--3--3-|
E|---------------------------------------------------|
     It's trick or treat, and tonight, its Trick!

e|----------------------------------------------------|
B|----------------------------------------------------|
G|-pm-5--5--5--5--5--5--5--5--7--7--7--7--7--*7--6--7-|
D|-pm-5--5--5--5--5--5--5--5--7--7--7--7--7--*7--6--7-|
A|-pm-3--3--3--3--3--3--3--3--5--5--5--5--5--*5--4--5-|
E|----------------------------------------------------|
 "Welcome back to town!" oh, I should lie down..
e|---------------------------------------------------|
B|---------------------------------------------------|
G|-pm-5--5--5--5--5--5--5--5--5--5--5--5--5--5--5--5-|
D|-pm-5--5--5--5--5--5--5--5--5--5--5--5--5--5--5--5-|
A|-pm-3--3--3--3--3--3--3--3--3--3--3--3--3--3--3--3-|
E|---------------------------------------------------|
    Everything's brown and  uh-oh.....      I feel   sick...
e|---------------------------------------------------------------------------|
B|---------------------------------------------------------------------------|
G|-pm-5--5--5--5--5--5--5--5--7--7--7--7--7--7--7--7--9--9--9--9--9--9--9--9-|
D|-pm-5--5--5--5--5--5--5--5--7--7--7--7--7--7--7--7--9--9--9--9--9--9--9--9-|
A|-pm-3--3--3--3--3--3--3--3--5--5--5--5--5--5--5--5--7--7--7--7--7--7--7--7-|
E|---------------------------------------------------------------------------|
        Where is he?      Gettin' Dizzy...
e|------------------------------------------|
B|--.-------------------.-------------------|
G|--10------------------5-------------------|
D|--10------------------5-------------------|
A|--8-------------------3-------------------|
E|------------------------------------------|

  how we gonna pay...               how we gonna pay...
Guitar 1:
e|--------------------------------------------------------------------------|
B|--------------------------------------------------------------------------|
G|--------------------------------------------------------------------------|
D|--12----12-13----13-14----14-13----13-12----12-13----13-14----14-13----13-|
A|------13-------13-------13-------13-------13-------13-------13-------13---|
E|----15-------15--------15-------15------15-------15-------15-------15-----|
Guitar 2:
e|--3----3----3----3----3----3----3----3----3----3----3----3----3----3----3----3-|
B|--3----3----4----4----5----5----4----4----3----3----4----4----5----5----4----4-|
G|--3----3----3----3----3----3----3----3----3----3----3----3----3----3----3----3-|
D|--5----5----5----5----5----5----5----5----5----5----5----5----5----5----5----3-|
A|--5----5----5----5----5----5----5----5----5----5----5----5----5----5----5----5-|
E|--3----3----3----3----3----3----3----3----3----3----3----3----3----3----3----3-|

  how we gonna pay...                     last  year's   rent?
Guitar 1:
e|-----------------------------------------11-----13------12--------|
B|-----------------------------------------11-----13------13--let---|
G|-----------------------------------------12-----14------12--ring--|
D|--12----12-13----13-14----14-13----13----13-----15------14--------|
A|------13-------13-------13-------13-------------------------------|
E|----15-------15--------15-------15--------------------------------|
Guitar 2:
e|--3----3----3----3----3----3----3----3----3------5------0---------|
B|--3----3----4----4----5----5----4----4----4------6------1---------|
G|--3----3----3----3----3----3----3----3----3------5------0--let----|
D|--5----5----5----5----5----5----5----5----5------7------2--ring---|
A|--5----5----5----5----5----5----5----5----6------8------3---------|
E|--3----3----3----3----3----3----3----3----6------8------3---------|

       The music ignites the night with passionate fire
e|--0---------------0-------------------0----------0--------|
B|--1---------------0-------------------1----------1--3b----|
G|--2---------------0-------------------0----------2-(wah)--|
D|--2---------------0-------------------2----------2--------|
A|--0---------------2-------------------3----------0--------|
E|------------------0---------------------------------------|
  The narration crackles and pops with incendiary wit
e|--0---------------0-------------------0----------0--------|
B|--1---------------0-------------------1----------1--------|
G|--2---------------0-------------------0----------2--------|
D|--2---------------0-------------------2----------2--------|
A|--0---------------2-------------------3----------0--------|
E|------------------0---------------------------------------|
   Zoom in as they burn the past to the ground
e|--0--------------------0-----------------|
B|--1--------------------0-----------------|
G|--2--------------------0-----------------|
D|--2--------------------0-----------------|
A|--0--------------------2-----------------|
E|-----------------------0-----------------|
I'm feeling the heat of the future's woes
e|--0-------------0-----------3-------5-|
B|--1-------------1-----------3-------5-|
G|--0-------------2-----------4-------5-|
D|--2-------------2-----------5-------7-|
A|--3-------------0-----------5-------7-|
E|----------------------------3-------5-|

*drums!!*
how do you leave the past behind when it keeps finding ways
e|---------------------------------------------------|
B|---------------------------------------------------|
G|--7--7--7--7--7--7--7--7--7--7--7--7--7--7--7--7---|
D|--7--7--7--7--7--7--7--7--7--7--7--7--7--7--7--7---|
A|--5--5--5--5--5--5--5--5--5--5--5--5--5--5--5--5---|
E|---------------------------------------------------|
to get to your heart?
e|--------------------------|
B|--------------------------|
G|--9--9--9--9--9--9--9--9--|
D|--7--7--7--7--7--7--7--7--|
A|--7--7--7--7--7--7--7--7--|
E|--------------------------|
It reaches way down deep and tears you inside out
e|---------------------------------------------------|
B|---------------------------------------------------|
G|--7--7--7--7--7--7--7--7--7--7--7--7--7--7--7--7---|
D|--7--7--7--7--7--7--7--7--7--7--7--7--7--7--7--7---|
A|--5--5--5--5--5--5--5--5--5--5--5--5--5--5--5--5---|
E|---------------------------------------------------|
'til you're torn apart!   (shout) RENT!
e|----------------------------|
B|----------------------------|
G|--9--9--9--9--11-11-11-11-x-|
D|--9--9--9--9--11-11-11-11-x-|
A|--7--7--7--7--9--9--9--9--x-|
E|----------------------------|
 How do you connect in an age where landlords, lovers,
Guitar 1 (wah death from above typey thing):
list to it to get the gist of it:
e|---------------------------------------------------------|
B|---------------------------------------------------------|
G|---------------------------------------------------------|
D|--12--11--12--12--12--12--12--11--12--12--12--11--12--12-|
A|---------------------------------------------------------|
E|---------------------------------------------------------|
Guitar 2:
e|---------------------------------------------------|
B|---------------------------------------------------|
G|--7--7--7--7--7--7--7--7--7--7--7--7--7--7--7--7---|
D|--7--7--7--7--7--7--7--7--7--7--7--7--7--7--7--7---|
A|--5--5--5--5--5--5--5--5--5--5--5--5--5--5--5--5---|
E|---------------------------------------------------|
    Your own blood cells betray??
Guitar 1(still death and wah-like):
e|--------------------------------|
B|--------------------------------|
G|--------------------------------|
D|--12-11-12-14~~~~~~~~~~~~~~~~~~~|
A|--------------------------------|
E|--------------------------------|
Guitar 2:
e|--------------------------|
B|--------------------------|
G|--9--9--9--9--9--9--9--9--|
D|--7--7--7--7--7--7--7--7--|
A|--7--7--7--7--7--7--7--7--|
E|--------------------------|
What binds the fabric together when the raging shifting winds of change
Guitar 1 (wah death from above typey thing):
list to it to get the gist of it:
e|------------------------------------------------------|
B|------------------------------------------------------|
G|------------------------------------------------------|
D|--12--11b--12--12--12--12--12--11b--12--12--12--11b---|
A|------------------------------------------------------|
E|------------------------------------------------------|
Guitar 2:
e|------------------------------------------------------|
B|------------------------------------------------------|
G|-6-7--7--7--7--7--7--7-6-7--7--7--7--7--7-6-7--7--7---|
D|-6-7--7--7--7--7--7--7-6-7--7--7--7--7--7-6-7--7--7---|
A|-4-5--5--5--5--5--5--5-4-5--5--5--5--5--5-4-5--5--5---|
E|------------------------------------------------------|
  Keep ripping away??
e|--------------------------------|
B|--------------------------------|
G|--------------------------------|
D|-14~~~~~~~~~~~~~16~~~~~~~~~~~~~~|
A|--------------------------------|
E|--------------------------------|
Guitar 2:
e|---------------------------|
B|---------------------------|
G|--9--9--9--9--11-11-11-11--|
D|--9--9--9--9--11-11-11-11--|
A|--7--7--7--7--9--9--9--9---|
E|---------------------------|

Draw a line in the sand and then make your stand
e|--------------------------------------------------|
B|--------------------------------------------------|
G|--12-12-12-12-12-12-12-12-7--7--7--7--7--7--7--7--|
D|--12-12-12-12-12-12-12-12-7--7--7--7--7--7--7--7--|
A|--10-10-10-10-10-10-10-10-5--5--5--5--5--5--5--5--|
E|--------------------------------------------------|
Use your camera to spar! Use your guitar.
e|--------------------------------------------------|
B|--------------------------------------------------|
G|--12-12-12-12-12-12-12-12-7--7--7--7--7--7--7--7--|
D|--12-12-12-12-12-12-12-12-7--7--7--7--7--7--7--7--|
A|--10-10-10-10-10-10-10-10-5--5--5--5--5--5--5--5--|
E|--------------------------------------------------|
When they act tough you call their bluff.
e|--------------------------------------------------|
B|--------------------------------------------------|
G|--12-12-12-12-12-12-12-12-7--7--7--7--7--7--7--7--|
D|--12-12-12-12-12-12-12-12-7--7--7--7--7--7--7--7--|
A|--10-10-10-10-10-10-10-10-5--5--5--5--5--5--5--5--|
E|--------------------------------------------------|
We're not gonna pay...
Both guitars:
e|---------------------------------------|
B|---------------------------------------|
G|---------------------------------------|
D|--14----14-15----15-16----16-15----15--|
A|------15-------15-------15-------15----|
E|----17-------17-------17-------17------|
We're not gonna pay...
e|---------------------------------------|
B|---------------------------------------|
G|---------------------------------------|
D|--14----14-15----15-16----16-15----15--|
A|------15-------15-------15-------15----|
E|----17-------17-------17-------17------|
We're not gonna pay...
Guitar 1:
e|--12----12-13----13-14----14-13----13--|
B|------15-------15-------15-------15----|
G|----14-------14-------14-------14------|
D|---------------------------------------|
A|---------------------------------------|
E|---------------------------------------|
Guitar 2:
e|---------------------------------------|
B|---------------------------------------|
G|---------------------------------------|
D|--14----14-15----15-16----16-15----15--|
A|------15-------15-------15-------15----|
E|----17-------17-------17-------17------|
       Last year's rent
Guitar 1:
e|--13---13---15---15---14---14---14----14--|
B|--13---13---15---15---15---15---15-13-15--|
G|--14---14---16---16---14---14---14----14--|
D|--15---15---17---17---16---16---16----16--|
A|------------------------------------------|
E|------------------------------------------|
Guitar 2:
e|--1----1----3----3----2----2----2----2--|
B|--1----1----3----3----3----3----3----3--|
G|--2----2----4----4----2----2----2----2--|
D|--3----3----5----5----4----4----4----4--|
A|--3----3----5----5----5----5----5----5--|
E|--1----1----3----3----5----5----5----5--|
       This year's rent
Guitar 1:
e|--13---13---15---15---14---14---14----14--|
B|--13---13---15---15---15---15---15-13-15--|
G|--14---14---16---16---14---14---14----14--|
D|--15---15---17---17---16---16---16----16--|
A|------------------------------------------|
E|------------------------------------------|
Guitar 2:
e|--1----1----3----3----2----2----2----2--|
B|--1----1----3----3----3----3----3----3--|
G|--2----2----4----4----2----2----2----2--|
D|--3----3----5----5----4----4----4----4--|
A|--3----3----5----5----5----5----5----5--|
E|--1----1----3----3----5----5----5----5--|
       Next year's rent
Guitar 1:
e|--13---13---15---15---14---14---14----14--|
B|--13---13---15---15---15---15---15-13-15--|
G|--14---14---16---16---14---14---14----14--|
D|--15---15---17---17---16---16---16----16--|
A|------------------------------------------|
E|------------------------------------------|
Guitar 2:
e|--1----1----3----3----2----2----2----2--|
B|--1----1----3----3----3----3----3----3--|
G|--2----2----4----4----2----2----2----2--|
D|--3----3----5----5----4----4----4----4--|
A|--3----3----5----5----5----5----5----5--|
E|--1----1----3----3----5----5----5----5--|
       Rent rent rent rent rent
Guitar 1:
e|--13---13---15---15---14---14---14----14--|
B|--13---13---15---15---15---15---15-13-15--|
G|--14---14---16---16---14---14---14----14--|
D|--15---15---17---17---16---16---16----16--|
A|------------------------------------------|
E|------------------------------------------|
Guitar 2:
e|--1----1----3----3----2----2----2----2--|
B|--1----1----3----3----3----3----3----3--|
G|--2----2----4----4----2----2----2----2--|
D|--3----3----5----5----4----4----4----4--|
A|--3----3----5----5----5----5----5----5--|
E|--1----1----3----3----5----5----5----5--|
        We're not gonna pay rent
Guitar 1:
e|--13---13---15---15---14---14---14----14--|
B|--13---13---15---15---15---15---15-13-15--|
G|--14---14---16---16---14---14---14----14--|
D|--15---15---17---17---16---16---16----16--|
A|------------------------------------------|
E|------------------------------------------|
Guitar 2:
e|--1----1----3----3----2----2----2----2--|
B|--1----1----3----3----3----3----3----3--|
G|--2----2----4----4----2----2----2----2--|
D|--3----3----5----5----4----4----4----4--|
A|--3----3----5----5----5----5----5----5--|
E|--1----1----3----3----5----5----5----5--|
Cause ev'rything is...
Guitar 1(SLOW THE HELL DOWN!!):
e|---5-----5-----8-----8-----|
B|---6-----6-----8-----8-----|
G|---7-----7-----9-----9-----|
D|---8-----8-----10----10----|
A|---8-----8-----10----10----|
E|---6-----6-----8-----8-----|
Guitar 2:
e|---5-----5-----0-----0-----|
B|---3-----3-----1-----1-----|
G|---3-----3-----0-----0-----|
D|---3-----3-----2-----3-----|
A|---1-----1-----3-----3-----|
E|---------------------------|
  RENT!!!!!!!!!!!!!!!!!!!!!!!!! (insanely longly held note)
Guitar 1:
e|---Do-you-honestly-expect-me,------|
B|-a-crappy-n00b-of-a-tabber---------|
G|--to-do-this-all-for-you?----------|
D|--the-rent-guitarist-doesn't-need--|
A|--to-know-what-he's-doing-here.----|
E|--just-freak-out/improv-in-D,-lol--|
Guitar 2:
e|---2-------------------------------|
B|---3-------------------------------|
G|---2-------------------------------|
D|---0-------------------------------|
A|---0-------------------------------|
E|-----------------------------------|

When you're done phr34king out, just hit a D somewhere convienient on your guitar
these are all good choices

e|--2----5----10--|
B|--3----7----10--|
G|--2----7----11--|
D|--0----7----12--|
A|--0----5----12--|
E|------------10--|

hope you liked it :)
i think its quite accurate if you've never heard the song before, lol
but i should stop draggin on myself...
anywho... the usual crap, if you have any fixes just comment them
if you see this somewhere other than ultimate-guitar
that nigga stole my tab
lol
anyway, enjoi!
~7alFl!ck


| /  slide up
| \  slide down
| h  hammer-on
| p  pull-off
| ~  vibrato
| +  harmonic
| x  Mute note
| P.M. palm muting (lightly hold ridge of hand against the bridge)
===============================================================================
Comments