Rent - Out Tonight Chords & Tabs

 

Rent Chords & Tabs

Version: 2 Type: Tab 0 ratings
1 star 2 stars 3 stars 4 stars 5 stars
comments

Out Tonight Tab

Well, I looked at the other tab for this. The intro sounded too high and the chorus was 
This isn't the whole tab; I'm just filling in the missing pieces (intro and chorus). If 
want the rest, go to the other tab; it sounded right to me.

Standard tuning.

Intro/first verse
e|--------------------------------------------------------|
B|--------------------------------------------------------|
G|------4---4-2----4-4-------4---4-2----------------------|
D|-2----2-2-2-0----2-2--2----2-2-2-0----------------------|
A|-0------0---------------0------0------------------------|
E|--------------------------------------------------------|

[ Tab from: http://www.guitartabs.cc/tabs/r/rent/out_tonight_tab_ver_2.html ]
Chorus
There are two guitars playing on the chorus. I had to strain to hear the lead, and this 
as close as I could get. It sounded right when I played it.

Guitar one (lead)
e|-----------------------------------------------------------------|
B|-----------------------------------------------------------------|
G|-7-7-6-6-4-4-2-1-1---------------7-7-7-7-6---7-7-7-7-7-6---------|
D|------------------4-4-2-2-0-2------------------------------------|
A|-----------------------------------------------------------------|
E|-----------------------------------------------------------------|


The rythms are fairly easy to figure out, and I don't have the time to post them, so 
switch chords by ear.
Guitar two (rythm)
e|------------------------|
B|------------------------|
G|-2---4------------------|
D|-0---2---2--------------|
A|---------0--------------|
E|------------------------|
Comments