Rent - One Song Glory Chords & Tabs

 

Rent Chords & Tabs

Version: 1 Type: Tab 1 rating
1 star 2 stars 3 stars 4 stars 5 stars
comments

One Song Glory Tab

Standard tuning
[ Tab from: http://www.guitartabs.cc/tabs/r/rent/one_song_glory_tab.html ]
1:-----------------------------------------------------|
2:-----------------------------------------------------|
3:---11-10---------11-10------8-6-----8-6-----------10-|
4:---------8-------------8------------------------8----|
5:9-------------------------------9-------9/11---------|
6:-------------11-----------7------9----------11-------|
Intro

1:----------------------------|
2:----------------------------|
3:----------------------------|
4:4--44--4--44--6--66--9--99--|
5:4--44--4--44--6--66--9--99--|
6:2--22--2--22--4--44--7--77--|
Chorus

Not the exact strummings
You Figure that out.

Peace
Comments