Rent - Musettas Waltz Intro Chords & Tabs

 

Rent Chords & Tabs

Version: 1 Type: Tab 0 ratings
1 star 2 stars 3 stars 4 stars 5 stars
comments

Musettas Waltz Intro Tab

E:8----87-----75-78------7-7------]
B:---58-----58-----66-6-8---55----]
G:--5------5----------------------]
D:--------------------------------]
A:--------------------------------]
E:--------------------------------]

Musetta's Walts "Solo" (Your Eyes)
[ Tab from: http://www.guitartabs.cc/tabs/r/rent/musettas_waltz_intro_tab.html ]
E:8-----87------75-7-8-15-12-10-8-7-5-7-8-7-8-10-7]
B:----58------58----------------------------------]
G:---5-------5------------------------------------]
D:------------------------------------------------]
A:------------------------------------------------]
E:------------------------------------------------]

(Repeat Original Musetta's Waltz tab, then solo)
Comments