Rent - La Vie Boheme Chords & Tabs

 

Rent Chords & Tabs

Version: 3 Type: Bass Tab 0 ratings
1 star 2 stars 3 stars 4 stars 5 stars
comments

La Vie Boheme Bass Tab

main riff 

G|---------------------------------|
D|------6---------------------6----|
A|---------3-4---6----6-4--3-------|
E|--4----4----------4-------4------|
[ Tab from: http://www.guitartabs.cc/tabs/r/rent/la_vie_boheme_btab_ver_3.html ]
G|---------------------------------|
D|------6---------------------6----|
A|---------3-4---6----6-4--3-------|
E|--4----4----------4-------4------|

G|---------------------------------|
D|------6---------------------6----|
A|---------3-4---6----6-4--3-------|
E|--4----4----------4-------4------|

G|---------------------------------|
D|------6---------------------6----|
A|---------3-4---6----6-4--3-------|
E|--4----4----------4-------4------|.....
Comments