Rent - Ill Cover You Chords & Tabs

 

Rent Chords & Tabs

Version: 1 Type: Bass Tab 0 ratings
1 star 2 stars 3 stars 4 stars 5 stars
comments

Ill Cover You Bass Tab

Standard Tuning
EADG

Intro: 

G|------------------------------------------------------|
D|------------------------------------------------------|
A|-2----1------4----4--6--1--2----1-------4--6--------1-|
E|-----------4---2----------------------4---------------|

G|------------------------------------------------------|
D|------------------------------------------------------|
A|-2----1------4----4--6--1--2----1---------------------|
E|-----------4---2----------------------4----2----------|

Verse:
[ Tab from: http://www.guitartabs.cc/tabs/r/rent/ill_cover_you_btab.html ]
"Live in my house...."  "I'll be your shelter"
G|------------------------------------------------------|
D|------------------------------------------------------|
A|-2--------------------2----------------2-4-5-6--------|
E|------------------------------------------------------|

"Just pay me back..."   "With one thousand kisses"
G|------------------------------------------------------|
D|------------------------------------------------------|
A|-7-------8------------9---------------9---------------|
E|------------------------------------------------------|
Comments