Renounced - Interlude Chords & Tabs

 

Interlude Chords & Tabs

Renounced Chords & Tabs

Version: 1 Type: Tab 0 ratings
1 star 2 stars 3 stars 4 stars 5 stars
comments

Interlude Tab

RENOUNCED - INTERLUDE (Just lead part)

-----------------------------------------------------------------

e|--------10-------------10-------------10------12------12------|
b|------8----8---------8----8---------8----8-------8-------8----|
G|---10--------10---10--------10---10--------10------10------10-|
D|-8--------------8--------------8------------------------------|
A|--------------------------------------------------------------|
D|--------------------------------------------------------------|

e|-------8-----------8-----------8-----------8-----|
b|-----6---6-------6---6-------6---6-------6---6---|
G|---9-------9---9-------9---9-------9---9-------9-|
D|-7-----------7-----------7-----------7-----------|
A|-------------------------------------------------|
D|-------------------------------------------------|

play section x4
------------------------------------------------------------------

e|-------------------------------------------------|
b|-----6-----6-----6-----6-----6-----6-----6-----6-|
G|---9-----9-----9-----9-----9-----9-----9-----9---|
D|-------------------------------------------------|
A|-------------------------------------------------|
D|-5-----5-----5-----5-----7-----7-----7-----7-----|

e|-------------------8-----------------------8-----|
b|-----6-----6-----6---6-------6-----6-----6---6---|
G|---9-----9-----9-------9---9-----9-----9-------9-|
D|-------------------------------------------------|
A|-------------------------------------------------|
D|-0-----0-----0-----------0-----0-----0-----------|
[ Tab from: http://www.guitartabs.cc/tabs/r/renounced/interlude_tab.html ]
e|-------------------------------------------------|
b|-----6-----6-----6-----6-----6-----6-----6-----6-|
G|---9-----9-----9-----9-----9-----9-----9-----9---|
D|-------------------------------------------------|
A|-------------------------------------------------|
D|-5-----5-----5-----5-----7-----7-----7-----7-----|

e|-------------------8-----------------8----|
b|-----6-----6-----6---6-------6-----6------|
G|---9-----9-----9-------9---9-----9--------|
D|------------------------------------------|
A|------------------------------------------|
D|-8-----8-----8-----------8-----8----------|

e|--------10------|
b|------8----8----|
G|---10--------10-|
D|-8--------------| x8
A|----------------|
D|----------------|

e|---------8----------------12-------------------------------------------|
b|------10---10----------10----10----------11-13-11----------11-10-------|
G|---10---------10----10----------10----10----------10----10-------10-12-|
D|-8---------------12----------------------------------------------------| x6
A|-----------------------------------12----------------13----------------|
D|-----------------------------------------------------------------------|

e|---------8--------------10------|
b|------10---10---------8----8----|
G|---10---------10---10--------10-|
D|-8---------------8--------------| x4
A|--------------------------------|
D|--------------------------------|

e|----------8--------8--------|
b|-------6-----6-----6--------|
G|----9-----------9--9--------|
D|-7-----------------7--------|
A|----------------------------|
D|----------------------------|
Comments