Renbourn John - Faro Rag Chords & Tabs

 

Faro Rag Chords & Tabs

Renbourn John Chords & Tabs

Version: 1 Type: Tab 0 ratings
1 star 2 stars 3 stars 4 stars 5 stars
comments

Faro Rag Tab

#----------------------------------PLEASE NOTE---------------------------------#
#This file is the author's own work and represents their interpretation of the #
#song. You may only use this file for private study, scholarship, or research. #
#------------------------------------------------------------------------------##
From: LCORBETT@MAINE.maine.edu


    |                 |    |  |
 ---|----------|------|----|--0----||--1---------------|-------1-----0-------|
 ---1----------|------3----4-------||------------------|------------------3--|
 --------------|-------------------||------2--------2--|----2----------------|
 --------------|-------------------||------3--------3--|-------3----------3--|
 ---3----------|------1----0-------||------------------|---------------------|
 --------------|---------------3---||--1-------1-------|--1----------1-------|

 ------------0-------|---------------------|--6-------------------|
 ---3--------------1-|---------------------|-------------------3--|
 -------0-------0----|-----0---------0-----|-----------------3----|
 -------2-------2----|-----2---------2-----|------5--------5------|
 --3-----------------|--3------------------|----------------------|
 ----------3---------|------------3--------|--3----------3--------|
------5---------5-------3---|------1--------------------|
------------------------2---|------3-------------3------|
-----------3----2-----------|---------2------2-------2--|
------------------------2---|------0--------------------|
----------------0-----------|---------------------------|
--3-------------------------|------------1--------------|

-----------------------------|--1-----------------------|
----------3----------3-------|--3-----------------------|
------2-------2----2------2--|--------0-----------0-----|
--0--------------------------|--------0-----------0-----|
-----------------3-----------|--2-----------------------|
-----------------------------|--------------3-----------|

------------1-----------0--------|-----------------0------|
----------------------------3----|---3-----------------1--|
-------0-----------------------0-|---------1---------1----|
----------0--------------------0-|---------2---------2----|
--2------------------------------|---2--------------------|
------------------------3--------|--------------0---------|

------------------------------|------------0-------------|
------------------------------|---3--------------1-------|
-------2----------------2-----|------2-------2-----------|
-------2----------------2-----|------0-------0-----------|
---0--------------------------|--------------------------|
---------------3--------------|---2-------2--------------|

------------------0------|-----3------------------------|
-------------1-----------|---------------------------0--|
-----2----------------2--|-----------0------------0-----|
---------0------------0--|-----------0---------0--------|
-------------------------|------------------------------|
--2-------------2--------|-----3------------3-----------|
[ Tab from: http://www.guitartabs.cc/tabs/r/renbourn_john/faro_rag_tab.html ]
-------3------5----------7--|---8-----------------------|
----------------------------|------------------------5--|
-------0--------------------|---------------------5-----|
--------------4-------------|--------7---------7--------|
-------------------------7--|---------------------------|
--3-------------------------|---5-----------5-----------|

-----8--------7-----5--------|-----5---------------7----|
-----------------------------|-----------------5--------|
--------------5--------------|----------7----------7----|
---------7---------------7---|--------------------------|
-----------------------------|-----7--------------------|
--5--------------------------|--------------0-----------|

--4--------------------------|--3-----------------------|
--------------------5--------|-----------------5--------|
-----------4-----------4-----|-------3-------------3----|
-----------------------------|--------------------------|
-----------------------------|--4-----------4-----------|
--0---------------0----------|--------------------------|

-----------3------------0-----|----------------------------|
------5-------------6---------|--3-------------------------|
-----------3----------------0-|-----------1---2------------|
------------------------------|-----2--3---------------2---|
--4-----------------4---------|------------------4--5------|
------------------------------|----------------------------|

------------------------------|--------1-------0-----------|
------------------------------|--------------------3-------|
------------------------------|--------4--------------4----|
--3------------------------0--|----------------------------|
----------------4--5----------|----------------------------|
-----4--5-------------0--1----|--3-------------3-----------|

--1---0--------------1--------|---------0------------------|
----------------3-------------|-----6------------0------0--|
-----------4--------------4---|-------------7--------7-----|
------------------------------|--------------------6-------|
------------------------------|----------------------------|
--3----------------3----------|--4-------------------------|

--------------0----------------|---------------------------|
----0------------------0-------|------------0-----------0--|
---------5-----------------0---|---------5-------5---------|
--7----------------0-----------|------4--------------4-----|
--0----------------------------|---------------------------|
-------------------------------|--5-----------5------------|

-----------------0-----------|------------------------------|
-----------0-----------------|--------1---------------0-----|
--------5------------0-------|---------------------0--------|
-----3---------------3-------|--------2---------------3-----|
-----------------------------|--3---------------------------|
--3------------3-------------|---------------3--------------|
-----------------------------||
--1-------8-------8------8---||
-----------------------------||
--2--------------------------||
--3--------------------------||
----------8-------7------6---||

Comments