Renaud Sechan - Des Que Le Vent Soufflera Chords & Tabs

 

Des Que Le Vent Soufflera Chords & Tabs

Renaud Sechan Chords & Tabs

Version: 1 Type: Tab 0 ratings
1 star 2 stars 3 stars 4 stars 5 stars
comments

Des Que Le Vent Soufflera Tab

   
#----------------------------------PLEASE NOTE---------------------------------#
#This file is the author's own work and represents their interpretation of the #
#song. You may only use this file for private study, scholarship, or research. #
#------------------------------------------------------------------------------#

Song : Des que le vent soufflera
Artist : Renaud Sechan
Lyrics/Music : Renaud Sechan

Tabbed by : Cedric Picard 

Right folks, here we go, somebody already gave a chord version of that
one [quite not accurate by the way, but anyway], so here's the full
version.

List of chords (by order of appearance) :
Em : 022000
D  : xx0232
G  : 320033
B  : x24442
Fm : 133111
Eb : x65343
Ab : 466544
C  : x32010
F#m: 244222
E  : 022100
A  : x02220
C# : x43121

Intro : (simply strum slowly each chord)

	          Em          Em       Em   Em
e-----------------0-----------0--------0----0----|
B-----------------0-----------0--------0----0----|
G-----------------0-----------0--------0----0----|
D-----------------2-----------2--------2----2----|
A-----------------2-----------2--------2----2----|
E-----------------0-----------0--------0----0----|

	C'est pas l'homme qui prend la mer,


	         D    D          Em     Em Em Em
e----------------2----2----------0------0--0--0--|
B----------------3----3----------0------0--0--0--|
G----------------2----2----------0------0--0--0--|
D----------------0----0----------2------2--2--2--|
A--------------------------------2------2--2--2--|
E--------------------------------0------0--0--0--|

	C'est la mer qui prend l'homme, Ta ta ta


	       Em  Em        D    D
e--------------0---0---------2----2--|
B--------------0---0---------3----3--|
G--------------0---0---------2----2--|
D--------------2---2---------0----0--|
A--------------2---2-----------------|
E--------------0---0-----------------|

	Moi la mer, elle m'a pris,


	           D  D  D  D
e------------------2--2--2--2--|
B------------------3--3--3--3--|
G------------------2--2--2--2--|
D------------------0--0--0--0--|
A------------------------------|
E------------------------------|

	Je m'souviens un mardi

Verse 1 : From now on, the rhythm for each chord is basic, it's
	    5 strum per chord (4played, 1is silenced, as you'll
	    change chord on that one)

  Em                                              D
e-0--0--0--0--0-|-0--0--0--0--0-|-0--0--0--0--x-|-2--2--2--2--x--|
B-0--0--0--0--0-|-0--0--0--0--0-|-0--0--0--0--x-|-3--3--3--3--x--|
G-0--0--0--0--0-|-0--0--0--0--0-|-0--0--0--0--x-|-2--2--2--2--x--|
D-2--2--2--2--2-|-2--2--2--2--2-|-2--2--2--2--x-|-0--0--0--0--x--|
A-2--2--2--2--2-|-2--2--2--2--2-|-2--2--2--2--x-|----------------|
E-0--0--0--0--0-|-0--0--0--0--0-|-0--0--0--0--x-|----------------|

	J'ai troque mes santiags et mon cuir un peu zone

  Em                              D
e-0--0--0--0--0-|-0--0--0--0--x-|-2--2--2--2--2-|-2--2--2--2--x--|
B-0--0--0--0--0-|-0--0--0--0--x-|-3--3--3--3--3-|-3--3--3--3--x--|
G-0--0--0--0--0-|-0--0--0--0--x-|-2--2--2--2--2-|-2--2--2--2--x--|
D-2--2--2--2--2-|-2--2--2--2--x-|-0--0--0--0--0-|-0--0--0--0--x--|
A-2--2--2--2--2-|-2--2--2--2--x-|---------------|----------------|
E-0--0--0--0--0-|-0--0--0--0--x-|---------------|----------------|

	Contre une paire de dockside et un vieux cire jaune

 Em                                              D
e-0--0--0--0--0-|-0--0--0--0--0-|-0--0--0--0--x-|-2--2--2--2--x--|
B-0--0--0--0--0-|-0--0--0--0--0-|-0--0--0--0--x-|-3--3--3--3--x--|
G-0--0--0--0--0-|-0--0--0--0--0-|-0--0--0--0--x-|-2--2--2--2--x--|
D-2--2--2--2--2-|-2--2--2--2--2-|-2--2--2--2--x-|-0--0--0--0--x--|
A-2--2--2--2--2-|-2--2--2--2--2-|-2--2--2--2--x-|----------------|
E-0--0--0--0--0-|-0--0--0--0--0-|-0--0--0--0--x-|----------------|

	J'ai deserte les crasses qui m'disaient : "Sois prudent

  Em                              D
e-0--0--0--0--0-|-0--0--0--0--x-|-2--2--2--2--2-|-2--2--2--2--x--|
B-0--0--0--0--0-|-0--0--0--0--x-|-3--3--3--3--3-|-3--3--3--3--x--|
G-0--0--0--0--0-|-0--0--0--0--x-|-2--2--2--2--2-|-2--2--2--2--x--|
D-2--2--2--2--2-|-2--2--2--2--x-|-0--0--0--0--0-|-0--0--0--0--x--|
A-2--2--2--2--2-|-2--2--2--2--x-|---------------|----------------|
E-0--0--0--0--0-|-0--0--0--0--x-|---------------|----------------|

	La mer c'est degueulasse, les poissons baisent dedans !"

Chorus :
[ Tab from: http://www.guitartabs.cc/tabs/r/renaud_sechan/des_que_le_vent_soufflera_tab.html ]
  Em                              D
e-0--0--0--0--0-|-0--0--0--0--x-|-2--2--2--2--2-|-2--2--2--2--x--|
B-0--0--0--0--0-|-0--0--0--0--x-|-3--3--3--3--3-|-3--3--3--3--x--|
G-0--0--0--0--0-|-0--0--0--0--x-|-2--2--2--2--2-|-2--2--2--2--x--|
D-2--2--2--2--2-|-2--2--2--2--x-|-0--0--0--0--0-|-0--0--0--0--x--|
A-2--2--2--2--2-|-2--2--2--2--x-|---------------|----------------|
E-0--0--0--0--0-|-0--0--0--0--x-|---------------|----------------|
	Des que le vent soufflera, je repartira

  Em              G               D               B
e-0--0--0--0--x-|-3--3--3--3--x-|-2--2--2--2--x-|-2--2--2--2--x--|
B-0--0--0--0--x-|-3--3--3--3--x-|-3--3--3--3--x-|-4--4--4--4--x--|
G-0--0--0--0--x-|-0--0--0--0--x-|-2--2--2--2--x-|-4--4--4--4--x--|
D-2--2--2--2--x-|-0--0--0--0--x-|-0--0--0--0--x-|-4--4--4--4--x--|
A-2--2--2--2--x-|-2--2--2--2--x-|---------------|-2--2--2--2--x--|
E-0--0--0--0--x-|-3--3--3--3--x-|---------------|----------------|

	Des que les vents tourneront, nous nous en all'rons

Lick : accordeon part
  Em              B
e-0--0--0--0--x-|-2--2--2--2--x--|
B-0--0--0--0--x-|-4--4--4--4--x--|
G-0--0--0--0--x-|-4--4--4--4--x--|
D-2--2--2--2--x-|-4--4--4--4--x--|
A-2--2--2--2--x-|-2--2--2--2--x--|
E-0--0--0--0--x-|----------------|

Bridge : same chords as intro

	C'est pas l'homme qui prend la mer
	C'est la mer qui prend l'homme
	Moi la mer elle m'a pris
	Au depourvu, tant pis !

Verse 2 : same chords as verse 1
	J'ai eu si mal au coeur
	Sur la mer en furie
	Qu'j'ai vomi mon quatre heures
	Et mon minuit aussi
	Je m'suis cogne partout
	J'ai dormi dans des draps mouilles
	Ca m'a coute des sous
	C'est d'la plaisance, c'est l'pied !

Chorus : same chords as first chorus

Pre-bridge :

  Em              G               D               B
e-0--0--0--0--x-|-3--3--3--3--x-|-2--2--2--2--x-|-2--2--2--2--x--|
B-0--0--0--0--x-|-3--3--3--3--x-|-3--3--3--3--x-|-4--4--4--4--x--|
G-0--0--0--0--x-|-0--0--0--0--x-|-2--2--2--2--x-|-4--4--4--4--x--|
D-2--2--2--2--x-|-0--0--0--0--x-|-0--0--0--0--x-|-4--4--4--4--x--|
A-2--2--2--2--x-|-2--2--2--2--x-|---------------|-2--2--2--2--x--|
E-0--0--0--0--x-|-3--3--3--3--x-|---------------|----------------|

  B               Em
e-2--2--2--2--x-|-0--0--0--0--0-|-0--0--0--0--0-|-0--0--0--0--0-|-0--0--0--0--x--|
B-4--4--4--4--x-|-0--0--0--0--0-|-0--0--0--0--0-|-0--0--0--0--0-|-0--0--0--0--x--|
G-4--4--4--4--x-|-0--0--0--0--0-|-0--0--0--0--0-|-0--0--0--0--0-|-0--0--0--0--x--|
D-4--4--4--4--x-|-2--2--2--2--2-|-2--2--2--2--2-|-2--2--2--2--2-|-2--2--2--2--x--|
A-2--2--2--2--x-|-2--2--2--2--2-|-2--2--2--2--2-|-2--2--2--2--2-|-2--2--2--2--x--|
E---------------|-0--0--0--0--0-|-0--0--0--0--0-|-0--0--0--0--0-|-0--0--0--0--x--|

  Fm
e-2--2--2--2--2-|-2--2--2--2--2-|-2--2--2--2--2-|-2--2--2--2--x--|
B-2--2--2--2--2-|-2--2--2--2--2-|-2--2--2--2--2-|-2--2--2--2--x--|
G-2--2--2--2--2-|-2--2--2--2--2-|-2--2--2--2--2-|-2--2--2--2--x--|
D-4--4--4--4--4-|-4--4--4--4--4-|-4--4--4--4--4-|-4--4--4--4--x--|
A-4--4--4--4--4-|-4--4--4--4--4-|-4--4--4--4--4-|-4--4--4--4--x--|
E-2--2--2--2--2-|-2--2--2--2--2-|-2--2--2--2--2-|-2--2--2--2--x--|

Bridge : same pattern as bridge for the previous verses with chords Fm Eb
	C'est pas l'homme qui prend la mer
	C'est la mer qui prend l'homme
	Mais elle prend pas la femme
	Qui prefere la campagne

Verse 3 : same pattern as previous verses with chords Fm Eb
	La mienne m'attend au port
	Au bout de la jetee
	L'horizon est bien mort,
	Dans ses yeux delaves
	Assise sur une bite
	D'amarrage elle pleure,
	Son homme qui la quitte
	La mer c'est son malheur !

Chorus : same pattern as previous chorus with chords Fm Ab Eb C

Bridge : same pattern as previous bridge
	C'est pas l'homme qui prend la mer
	C'est la mer qui prend l'homme
	Moi la mer elle m'a pris
	Comme on prend  un taxi...

Verse 4 : same as verse 3
	Je f'rai le tour du monde
	Pour voir a chaque etape
	Si tous les gars du monde
	Veulent bien m'lacher la grappe
	J'irai aux quatre vents
	Foutre un peu le boxon
	Jamais les oceans
	N'oublieront mon prenom

Chorus : same as previous chorus

Pre-bridge : same as previous pre-bridge with chords C Fm F#m

Bridge : same as previous bridge with chords F#m E
	C'est pas l'homme qui prend la mer
	C'est la mer qui prend l'homme
	Moi la mer elle m'a pris
	Et mon bateau aussi...

Verse 5 : same pattern as verse 4 with chords F#m E
	Il est fier mon navire
	Il est beau mon bateau
	C'est un fameux trois mats
	Fin comme un oiseau
	Mais Tabarly, Pajot
	Kersauzon et Riguidel
	Naviguent pas sur des cageots
	Ni sur des poubelles

Chorus : same as previous chorus with chords F#m A E C#

Bridge : same as previous bridge
	C'est pas l'homme qui prend la mer,
	C'est la mer qui prend l'homme, Ta ta ta
	Moi la mer, elle m'a pris,
	Je m'souviens un vendredi

Slow lick :

	   F#m (6 strums)
	Ne pleure plus ma mere

	    E (3 strums)  F#m (6 strums)
	Ton fils est matelot

	                     E (5 strums)
	Ne pleure plus mon pere

	                      F#m
	Je vais au fil de l'eau

Verse 6 : same as verse 5
	Regardez votre enfant
	Il est parti marin
	Je sais c'est pas marrant
	Mais c'etait mon destin

Chorus : same as previous chorus

Alt chorus : same chords as previous chorus
	Des que le vent soufflera
	Nous repartira
	Des que les vents tourneront
	Je me n'en all'rons

Ad lib
Comments