Remy Zero - Shattered Chords & Tabs

 

Shattered Chords & Tabs

Remy Zero Chords & Tabs

Version: 3 Type: Tab 0 ratings
1 star 2 stars 3 stars 4 stars 5 stars
comments

Shattered Tab

Song: Shattered
Artist: Remy Zero
Tuning: Standard (EBGDAE)
Tabber: Rob Marston (rob@leftatom.com)
Notes: Good song, Great band! Use a Capo on the 4th fret. The frets arn't relative
to the capo, they're the actual fret numbers. If you played it without one it would
be much harder and the 0's down below would 4's. If it doesn't sound right move the
Capo around or move the fingering patter up and down the fretboard. This sounds great
to me when I play it along with the actual song. Have fun!

Intro/Verse:

E-|---------|-----------------------|
B-|---------|-------6h7p6-----------| X 2
G-|---6s8---|---6h8-------8p6-6s8---|
D-|---------|-----------------------|
A-|---0-----|---0-----0---0---0-----|
E-|---------|-----------------------|

Verse:
[ Tab from: http://www.guitartabs.cc/tabs/r/remy_zero/shattered_tab_ver_3.html ]
E-|---------|-------------------------|-----------------------|-----------|
B-|---------|-------6h7p6---------0---|-------6h7p6-----------|---7-6-----|
G-|---6s8---|---6h8-------8p6-6s8-----|---6h8-------8p6-6s8---|-------8---|
D-|---------|-------------------------|-----------------------|-----------|
A-|---0-----|---0-----0---0---0-------|---0-----0---0---0-----|---0-0-0---|
E-|---------|-------------------------|-----------------------|-----------|

I'm not sure about this part...

E-|---------------|-------------------------------|
B-|---------------|---------6-----------6---------|
G-|-------6-------|-------6---6-------6---6---6---|
D-|-----------0---|-----6-----------6-------6-----|
A-|---6-----------|---0-----------0---------------|
E-|---7-----------|-------------------------------|


It's basically these riffs. Everynow and then two are played over each other
by a second guitarist. The intro is all people really care about anyway and I
think it sounds pretty good. If you have any changes, or suggestions, let me
know.
Comments