Remy Zero - Save Me Chords & Tabs

 

Save Me Chords & Tabs

Remy Zero Chords & Tabs

Version: 3 Type: Tab 0 ratings
1 star 2 stars 3 stars 4 stars 5 stars
comments

Save Me Tab

Song: Save Me 
Artist: Remy Zero

Tab by: aldrian frani 


Intro:

E-|----------------------|
B-|----------------------|
G-|----9---7---11---14---|
D-|----9---7---11---14---|
A-|----7---5----9---12---|
E-|----------------------|

E-|-----------------------------------|
B-|---9-9-9---9-9---9---9-9---9-9-9---|
G-|---9-9-9---9-9---9---9-9---9-9-9---|
D-|---7-7-7---7-7---7---7-7---7-7-7---|
A-|-----------------------------------|
E-|-----------------------------------|


Verse:
[ Tab from: http://www.guitartabs.cc/tabs/r/remy_zero/save_me_tab_ver_3.html ]
E-|-----------------------|
B-|---9vvvvvv---7vvvvvv---| Repeat
G-|---9vvvvvv---7vvvvvv---| The little v's mean vibrate or bend
D-|---7vvvvvv---5vvvvvv---| If you have an effect that makes the
A-|-----------------------| sound heard in the song, go for it!
E-|-----------------------|


Chorus:

E-|-------------------|
B-|-------------------| Use these chords, repeat...
G-|---5---7-----------|
D-|---5---7---7---5---|
A-|---7---5---7---5---|
E-|-----------5---3---|


Rate Plssss.........
Comments