Remy Zero - Save Me Chords & Tabs

 

Save Me Chords & Tabs

Remy Zero Chords & Tabs

Version: 1 Type: Bass Tab 0 ratings
1 star 2 stars 3 stars 4 stars 5 stars
comments

Save Me Bass Tab

   
Intro
G |--------------------------------------------------------|
D |--------------------------------------------------------|
A |-2---4---2---4---6--------------------------------------|
Eb|-------------------------0-0-0-0-0--0-0--3-3-3-3-3--5-7-|

Verse
G |--------------------------------|
D |--------------------------------|
A |--------------------------------|
Eb|-0-0-0-0-0--0-0--3-3-3-3-3--5-7-|

Pre-Chorus
G |----------------------------------------------------------------|
D |----------------------------------------------------------------|
A |-2-2-2-2-2-2-2-2-4-4-4-4-4-4-4-4-----------------4-4-4-4-4--4-4-|
Eb|---------------------------------0-0-0-0-0--0-0-----------------|

G |---------------------------------|
D |---------------------------------|
A |-2-2-2-2-2-2-2-2-4-4-4-4-4-4-4-4-|
Eb|---------------------------------|
[ Tab from: http://www.guitartabs.cc/tabs/r/remy_zero/save_me_btab.html ]
Chorus
G |-----------------------------------------------------------------|
D |-----------------------------------------------------------------|
A |-----------------4-4-4-4-4-4-4-4-----------------2-2-2-2-2-2-2-2-|
Eb|-3-3-3-3-3-3-3-3-----------------5-5-5-5-5-5-5-5-----------------|

G |-----------------------------------------------------------------|
D |-----------------------------------------------------------------|
A |-----------------4-4-4-4-4-4-4-4-----------------2-2-4-4-6-6-7-7-|
Eb|-3-3-3-3-3-3-3-3-----------------5-5-5-5-5-5-5-5-----------------|

G |-----------------------------------------------------------------|
D |-----------------8-8-8-8-8-8-8-8-6-6-6-6-6-6-6-6-9-9-9-9-9-9-9-9-|
A |-9-9-9-9-9-9-9-9-------------------------------------------------|
Eb|-----------------------------------------------------------------|

Bridge
G |----------------|
D |----------------|
A |----------------|
Eb|-000---333--222-|

Structure:
Intro
Verse x 8
Pre-Chorus
Chorus
No Bass for two measures
Verse x 7
Pre-Chorus
Chorus
Bridge x 2
Pre-Chorus
Chorus (Play the first part three times, then continue)
Comments