Remy Zero - Impossibility Chords & Tabs

 

Impossibility Chords & Tabs

Remy Zero Chords & Tabs

Version: 1 Type: Bass Tab 0 ratings
1 star 2 stars 3 stars 4 stars 5 stars
comments

Impossibility Bass Tab

   
Artist: Remy Zero
Song: Impossibility
Album: The Golden Hum
Tuning: Drop-D

Intro
G:-----------------------------------------------------------------|
D:-----------------------------------------------------------------|
A:-5-5-5-5-5-5-5-7/0-0-0-0-0---0-0-3-3-3-3-3-5-3-2-----------0-0-3-|
D:---------------------------5---------------------5-5-5-5-5-------|

G:-----------------------------------------------------------------|
D:-----------------------------------------------------------------|
A:-5-5-5-5-5-7/5-3-0-0-0-0-0-0-0-----------------------------------|
D:-------------------------------9/5-5-5-5-5-5-5-5-5-7-9-5-7-5-2-0-|

1st Verse
G:-----------------------------------------------------------------|
D:-----------------------------------------------------------------|
A:-----------------0-0-0-0-0-0-0-2-3-3-3-3-3-3-3-2-----------0-----|
D:-0-0-0-0-0-0-0-0---------------------------------5-5-5-5-5---5-2-|

G:-----------------------------------------------------------------|
D:-----------------------------------------------------------------|
A:-----------------0-0-0-0-0-3-2-0---------------------------------|
D:-0-0-0-0-0-0-0-0-----------------5-5-5-5-5-5-5-5-5-7-9-5-7-5-2-0-|

G:-----------------------------------------------------------------|
D:-----------------------------------------------------------------|
A:-----------------0-0-0-0-0---0-2-3-3-3-3-3-5-3-2-----------0-----|
D:-0-0-0-0-0-0-0-0-----------5---------------------5-5-5-5-5---5-2-|

G:-----------------------------------------------------------------|
D:-----------------------------------------------------------------|
A:-----------------0-0-0-0-0-3-2-0---------------------------------|
D:-0-0-0-0-0-0-0-0-----------------5-5-5-5-5-5-5-5-5-5-5-5-5-5-5-5-|

1st Chorus
G:-----------------------------------------------------------------|
D:-----------------------------------------------------------------|
A:-----------------------------------------------------------------|
D:-3-3-3-3-3-3-3-3-2-2-2-2-2-2-2-2-0-0-0-0-0-0-0-0-2-2-2-2-2-2-0-2-|

G:-----------------------------------------------------------------|
D:-----------------------------------------------------------------|
A:-----------------------------------------------------------0-2-0-|
D:-3-3-3-3-3-3-5-3-2-2-2-2-2-2-2-2-2-5-5-2-5-5-2-5-5-2-5-5-5-------|

G:-----------------------------------------------------------------|
D:-----------------------------------------------------------------|
A:-----------------------------------------------------------------|
D:-3-3-3-3-3-3-3-3-2-2-2-2-2-2-2-2-0-0-0-0-0-0-0-0-2-2-2-2-2-2-0-2-|

G:-------------------------------------------------------------------------|
D:-------------------------------------------------------------------------|
A:-0-0-0-0-0-0-0-2-3-3-3-3-3-3-3-3-----------------------------------------|
D:---------------------------------5-5-5-5-5-5-5-5/14-14-14-14-14-14-14-14-|

Little Guitar Solo
G:-------------------------------------------------------------------------|
D:-------------------------------------------------------------------------|
A:-------------------------------------------------------------------------|
D:-0-0-0-0-0-0-0-0/7-7-7-7-7-7-7-7/10-10-10-10-10-10-10-10/5-5-5-5-5-5-5-5-|
[ Tab from: http://www.guitartabs.cc/tabs/r/remy_zero/impossibility_btab.html ]
2nd Verse
G:-----------------------------------------------------------------|
D:-----------------------------------------------------------------|
A:-----------------0-0-0-0-0-0-0-2-3-3-3-3-3-3-3-2-----------0-----|
D:-0-0-0-0-0-0-0-0---------------------------------5-5-5-5-5---5-2-|

G:-----------------------------------------------------------------|
D:-----------------------------------------------------------------|
A:-----------------0-0-0-0-0-0-0-0-------------------0-0-2-2-3-3-3-|
D:-0-0-0-0-0-0-0-0-----------------5-5-5-5-5-5-5-5-5---------------|

G:-----------------------------------------------------------------|
D:-----------------------------------------------------------------|
A:-5-5-5-5-5-7/5-3-0-0-0-0-0-0-0-2-3-3-3-3-3-5-3-2-----0-0-2-2-3-3-|
D:-------------------------------------------------5-5-------------|

G:-----------------------------------------------------------------|
D:-----------------------------------------------------------------|
A:-5-5-5-5-5-7/5-3-0-0-0-0-0-2-------------------------------------|
D:-----------------------------5-5-5-5-5-5-5-5-5-5-5-5~----5/17~---|

2nd Chorus
G:-----------------------------------------------------------------|
D:-----------------------------------------------------------------|
A:-8-8-8-8-8-10-8-7-7-7-7-7-7-7-7-7-5-5-5-5-5-3-5-5-7-7-7-7-7-7/10-|
D:-----------------------------------------------------------------|

G:-----------------------------------------------------------------------------|
D:----------------------------------------------------------8-8-10-10-11-11-11-|
A:-8-8-8-8-8-10-8-7-7-7-7-7-7-7-7-7-8-10-10-8-10-10-8-10-10--------------------|
D:-----------------------------------------------------------------------------|

G:----------------------------------------------------------------|
D:----------------------------------------------------------------|
A:-8-8-8-8-8-10-8-7-7-7-7-7-7-7-7-7-5-5-5-5-5-5-3-5-7-7-7-7-7-7/2-|
D:----------------------------------------------------------------|

G:--------------------------------------------------------------------------------------|
D:--------------------------------------------------------------------------------------|
A:-0-0-0-0-0-0-0-2-3-3-3-3-3-3-3-3------------------------------------------------------|
D:---------------------------------5-5-5-5-5-5-5-5-6-6-6-6-6-6-6-6/14-14-14-14-14-14-14-|

Bridge
G:-----------------------------------------------------------------|
D:-----------------------------------------------------------------|
A:-5-5-5-5-5-5-5-5-0-0-0-0-0-0-0-0-3-3-3-3-3-3-3-3-----------------|
D:-------------------------------------------------5-5-5-5-5-5-5-5-|

G:-----------------------------------------------------------------|
D:-----------------------------------------------------------------|
A:-5-5-5-5-5-5-5-5-0-0-0-0-0-0-0-0---------------------------------|
D:---------------------------------5-5-5-5-5-5-5-5-5-5-5-5-5-5-5-5-|

Outro
G:-----------------------------------------------------------------|
D:-----------------------------------------------------------------|
A:-----------------0-0-0-0-0-0-0-2-3-3-3-3-3-5-3-2-----------0-0-3-|
D:-0-0-0-0-0-0-0-0---------------------------------5-5-5-5-5-------|

G:-------------------------------------|
D:-------------------------------------|
A:-5-5-5-5-5-7/5-3-0-0-0-0-0-0-0/10~---|
D:-------------------------------------|
Comments