Remnant - Unknown Ii Chords & Tabs

 

Unknown Ii Chords & Tabs

Remnant Chords & Tabs

Version: 1 Type: Tab 0 ratings
1 star 2 stars 3 stars 4 stars 5 stars
comments

Unknown Ii Tab

                          "The Unknown II"
                             by Remnant

Note: standard tuning 1 whole step down/clean electric or acoustic

Intro: Fig.1
e----------------|---------------|---------------|-------------|
b--------1-------|-------3-------|-------0-------|-------------|
g------2---2-----|-----2---2-----|-----2---2-----|-------0-----|
d----2-------2---|---2-------2---|---2-------2---|-----2---2---|
a--0-----------0-|-3-----------3-|-2-----------2-|---2-------2-|
e----------------|---------------|---------------|-3-----------|

Verse: Fig.2
e--------------0---|-----------------|---------------|-------------0---|
b--------0h1-----1-|-------3-----0---|-------0-------|---------------0-|
g------2-----2-----|-----2---2-----2-|-----2---2p0---|-------0---------|
d----2-------------|---2-------2-----|---2---------2-|-----2---2-------|
a--0---------------|-3---------------|-2-------------|---2-------2-----|
e------------------|-----------------|---------------|-3---------------|
[ Tab from: http://www.guitartabs.cc/tabs/r/remnant/unknown_ii_tab.html ]
Bridge: Fig.3                                     Song Order
e----------------------------------|              -----------|
b--------3-------0-------0---------|                 Fig.1---|
g------2-------0-------5---5-------|                 Fig.2---|
d----3-------2-------2-------2-----|                 Fig.3---|
a--0-------0-------3-----------3p2-|                 Fig.4---|
e----------------------------------|                 Fig.2---|
                                                     Fig.3
Chorus: Fig.4                                        Fig.4
e----------------------------------|                 Fig.2
b--------5-------1-------0-------3-|                  End
g------5-------2-------0-------0---|
d----7-------3-------0-------0-----|
a--0-------0-------2-------3-------|
e----------------------------------|

Lyrics:

Verse1
Sitting by the bed watching death roll by.
In a silent dark room he calls the boy asidee.
A wisper fills the silence,
Words of wisdom told.
The boy holds those words,
They make him strong you know

Bridge
Oh every day 2X

Chorus
He wonders what it means 2X

Verse2
Alone he walks today,
Surrounded by his pain.
So up in smoke he goes,
Distorting everything.
Brighter days may come,
But the past wont let go.
He still holds those words,
His dieing father told.

              *Song written and arranged by Shannon Davis*
Comments