Remnant - Mask Chords & Tabs

 

Mask Chords & Tabs

Remnant Chords & Tabs

Version: 1 Type: Tab 0 ratings
1 star 2 stars 3 stars 4 stars 5 stars
comments

Mask Tab

   
Song: Mask
Artist: Remnant
Tabbed by: Timothy Maxwell (timmax9@hotmail.com)
DROPPED-D TUNING: D-A-D-G-B-E

CHORDS:
F#5(9): 446XXX		F#m: 447XXX
D5: 000XXX		E5: 222XXX
F#5: 444XXX

Intro: (heavy distortion)
  F#5(9)          D5  F#m
  P.M.  . .   . .     P.M.  . .   . .  
|---------------------------------------|
|---------------------------------------|
|---------------------------------------|
|-6-6---6-6---6-6-0---7-7---7-7---7-7-0-|
|-4-4---4-4---4-4-0---4-4---4-4---4-4-0-|
|-4-4---4-4---4-4-0---4-4---4-4---4-4-0-|

  F#5(9)          D5  F#m
  P.M.  . .   . .     P.M.  . .   . .  
|--------------------------------------------|
|--------------------------------------------|
|--------------------------------------------|
|-6-6---6-6---6-6-0---7-7---7-7---7-7-6b-(6)-|
|-4-4---4-4---4-4-0---4-4---4-4---4-4--------|
|-4-4---4-4---4-4-0---4-4---4-4---4-4--------|

  F#5(9)              F#m
|---------------------------------------|
|---------------------------------------|
|---------------------------------------|
|-6-6---6-6---6-6-0---7-7---7-7---7-7-0-|
|-4-4---4-4---4-4-0---4-4---4-4---4-4-0-|
|-4-4---4-4---4-4-0---4-4---4-4---4-4-0-|

  F#5(9)              F#m
|--------------------------------------------|
|--------------------------------------------|
|--------------------------------------------|
|-6-6---6-6---6-6-0---7-7---7-7---7-7-6b-(6)-|
|-4-4---4-4---4-4-0---4-4---4-4---4-4--------|
|-4-4---4-4---4-4-0---4-4---4-4---4-4--------|

Verses:
1. We packed our luggage, we're on our way  
2. We threw out the garbage, and made our stand
  F#5(9)              F#m
|------------------------------------------|
|------------------------------------------|
|------------------------------------------|
|-6-6-6---------------7-7-7----------------|
|-------4-4-4---------------4-4-4----------|
|-------------4(H)----------------4(H)-----|

  we're on the road, with Jesus we're saved
  Jesus helped me, made me a new man
  F#5(9)              F#m               H.
|------------------------------------------|
|------------------------------------------|
|------------------------------------------|
|-6-6-6---------------7-7-7-------------4--|
|-------4-4-4---------------4-4-4-------4--|
|-------------4(H)----------------4(H)--4--|

  But sometimes our sin makes a mask 
  But sometimes our problems make a mask
  F#5(9)            H..   F#m               H..
|-----------------------------------------------|
|-----------------------------------------------|
|-----------------------------------------------|
|-6-6-6-------------4-4---7-7-7-------------4-4-|
|-------4-4-4-------4-4---------4-4-4-------4-4-|
|-------------4-4---4-4---------------4-4---4-4-|

  that everything's fine, no matter what people ask
  that everything's perfect, no matter what they ask
  F#5(9)            H..   F#m               
|------------------------------------------------|
|------------------------------------------------|
|------------------------------------------------|
|-6-6-6-------------4-4---7-7-7-------------4-4\-|
|-------4-4-4-------4-4---------4-4-4-4-4---4-4\-|
|-------------4-4---4-4---------------4-4---4-4\-|

Chorus:
Why do we sin, why do we 
  D5      E5
|-----------------------|
|-----------------------|
|-----------------------|
|-0-------2-----------/-|
|-0-------2-----------/-|
|-0-------2-----------/-|

  smile, when somebody asks if we're doing alright?
  F#5
|-------------------------------------------------|
|-------------------------------------------------|
|---------/14-14-13-----------/14-14-13b-(13)-----|
|-4---4---------------4---4-----------------------|
|-4---4---/12-12-11---4---4---/12-12-11b-(11)-----|
|-4---4---------------4---4-----------------------|

  Why do we put on the mask of 
  D5      E5             
|---------------------------------|
|---------------------------------|
|---------------------------------|
|-0-------2------2----2---------2-|
|-0-------2------2----2---2-2---2-|
|-0-------2------2----2---2-2---2-|
  happiness?
  F#5(9)              F#m
|---------------------------------------|
|---------------------------------------|
|---------------------------------------|
|-6-6---6-6---6-6-0---7-7---7-7---7-7-0-|
|-4-4---4-4---4-4-0---4-4---4-4---4-4-0-|
|-4-4---4-4---4-4-0---4-4---4-4---4-4-0-|

  F#5(9)              F#m
|--------------------------------------------|
|--------------------------------------------|
|--------------------------------------------|
|-6-6---6-6---6-6-0---7-7---7-7---7-7-6b-(6)-|
|-4-4---4-4---4-4-0---4-4---4-4---4-4--------|
|-4-4---4-4---4-4-0---4-4---4-4---4-4--------|

(back to Verses [2.])

Chorus:
Why do we sin, why do we 
  D5      E5
|-----------------------|
|-----------------------|
|-----------------------|
|-0-------2-----------/-|
|-0-------2-----------/-|
|-0-------2-----------/-|

  smile, when somebody asks if we're doing alright?
  F#5
|-------------------------------------------------|
|-------------------------------------------------|
|---------/14-14-13-----------/14-14-13b-(13)-----|
|-4---4---------------4---4-----------------------|
|-4---4---/12-12-11---4---4---/12-12-11b-(11)-----|
|-4---4---------------4---4-----------------------|

  Why do we put on the mask of 
  D5      E5             
|---------------------------------|
|---------------------------------|
|---------------------------------|
|-0-------2------2----2---------2-|
|-0-------2------2----2---2-2---2-|
|-0-------2------2----2---2-2---2-|
[ Tab from: http://www.guitartabs.cc/tabs/r/remnant/mask_tab.html ]
Interlude:
  (happiness?)
  F#5
  P.M. . . . . . . . . . . . . . . . . . . . . . . . . . . . . . .
|-----------------------------------------------------------------|
|-----------------------------------------------------------------|
|-----------------------------------------------------------------|
|-----------------------------------------------------------------|
|-----------------------------------------------------------------|
|-4-4-4-4-7-4-4-4-4-4-4-7-4-4-7-4-4-4-4-4-7-4-4-4-4-4-4-7-4-4-7-4-|
  E5
  P.M. . . . . . . . . . . . . . . . . . . . . . . . . . . . . . .
|-----------------------------------------------------------------|
|-----------------------------------------------------------------|
|-----------------------------------------------------------------|
|-----------------------------------------------------------------|
|-----------------------------------------------------------------|
|-2-2-2-2-6-2-2-2-2-2-2-6-2-2-6-2-6/7-2-2-6-2-2-2-2-2-2-6-2-6/7-2-|

  D5
  P.M. . . . . . . . . . . . . . . . . . . . . . . . . . . . . . .
|-----------------------------------------------------------------|
|-----------------------------------------------------------------|
|-----------------------------------------------------------------|
|-----------------------------------------------------------------|
|-----------------------------------------------------------------|
|-0-0-0-0-6-0-0-0-0-0-0-6-0-0-6-0-6/7-0-0-7-0-0-0-0-0-0-7-0-6/7-0-|

  F#5
  P.M. . . . . . . . . . . . . . . . . . . . . . . . . . . . . . .
|-----------------------------------------------------------------|
|-----------------------------------------------------------------|
|-----------------------------------------------------------------|
|-----------------------------------------------------------------|
|-----------------------------------------------------------------|
|-4-4-4-4-7-4-4-4-4-4-4-7-4-4-7-4-4-4-4-4-7-4-4-4-4-4-4-7-4-4-7-4-|

[repeat this rhythm]

Bridge:
                   F#5                   E5
Ah, this mask will break, no it will not stay
                      D5                    F#5
Cause we will keep it away, we will keep it away
                    F#5                             E5
If we don't it will take, it'll take our salvation away
                       D5                        F#5 (Figure 2)
And sin will take it's place, sin will take it's place, ah, this mask 

Figure 2:
  F#5
|-----------------------------|
|-----------------------------|
|-----------------------------|
|-----------------------------|
|-4-4-4-4-4-4-4-4-4-4-4-4-4-4-|
|-4-4-4-4-4-4-4-4-4-4-4-4-4-4-|

  will break,                                       ah, this mask
  F#5
  P.M. . . . . . . . . . . . . . . . . . . . . . . . . . . . . . .
|-----------------------------------------------------------------|
|-----------------------------------------------------------------|
|-----------------------------------------------------------------|
|-----------------------------------------------------------------|
|-4-4-4-4-7-4-4-4-4-4-4-7-4-4-7-4-4-4-4-4-7-4-4-4-4-4-4-7-4-4-7-4-|
|-4-4-4-4-7-4-4-4-4-4-4-7-4-4-7-4-4-4-4-4-7-4-4-4-4-4-4-7-4-4-7-4-|

  will break,                                       ah, this mask
  E5
  P.M. . . . . . . . . . . . . . . . . . . . . . . . . . . . . . .
|-----------------------------------------------------------------|
|-----------------------------------------------------------------|
|-----------------------------------------------------------------|
|-----------------------------------------------------------------|
|-2-2-2-2-6-2-2-2-2-2-2-6-2-2-6-2-6/7-2-2-6-2-2-2-2-2-2-6-2-6/7-2-|
|-2-2-2-2-6-2-2-2-2-2-2-6-2-2-6-2-6/7-2-2-6-2-2-2-2-2-2-6-2-6/7-2-|

  will break,                                       ah, this mask
  D5
  P.M. . . . . . . . . . . . . . . . . . . . . . . . . . . . . . .
|-----------------------------------------------------------------|
|-----------------------------------------------------------------|
|-----------------------------------------------------------------|
|-----------------------------------------------------------------|
|-0-0-0-0-6-0-0-0-0-0-0-6-0-0-6-0-6/7-0-0-7-0-0-0-0-0-0-7-0-6/7-0-|
|-0-0-0-0-6-0-0-0-0-0-0-6-0-0-6-0-6/7-0-0-7-0-0-0-0-0-0-7-0-6/7-0-|

  will break
  P.M. . . . . . . . . . . . . . . . . . . . 
|-----------------------------------------------------------------|
|-----------------------------------------------------------------|
|-----------------------------------------------------------------|
|-----------------------------------------------------------------|
|-4-4-4-4-7-4-4-4-4-4-4-7-4-4-7-4-4-4-4-4-7-4-4-4-4-4-4-7-4-4-7-/-|
|-4-4-4-4-7-4-4-4-4-4-4-7-4-4-7-4-4-4-4-4-7-4-4-4-4-4-4-7-4-4-7-/-|

Chorus:
Why do we sin, why do we 
  D5      E5
|-----------------------|
|-----------------------|
|-----------------------|
|-0-------2-----------/-|
|-0-------2-----------/-|
|-0-------2-----------/-|

  smile, when somebody asks if we're doing alright?
  F#5
|-------------------------------------------------|
|-------------------------------------------------|
|---------/14-14-13-----------/14-14-13b-(13)-----|
|-4---4---------------4---4-----------------------|
|-4---4---/12-12-11---4---4---/12-12-11b-(11)-----|
|-4---4---------------4---4-----------------------|

  Why do we put on the mask of 
  D5      E5             
|---------------------------------|
|---------------------------------|
|---------------------------------|
|-0-------2------2----2---------2-|
|-0-------2------2----2---2-2---2-|
|-0-------2------2----2---2-2---2-|

  happiness
  F#5
|-------------------------------------------------|
|-------------------------------------------------|
|---------/14-14-13-----------/14-14-13b-(13)-----|
|-4---4---------------4---4-----------------------|
|-4---4---/12-12-11---4---4---/12-12-11b-(11)-----|
|-4---4---------------4---4-----------------------|

  Why do we sin?        Why do we 
  D5
|---------------------------------|
|---------------------------------|
|---------------------------------|
|-0-0-0-0-2---2--2----2---------2-|
|-0-0-0-0-2---2--2----2---2-2---2-|
|-0-0-0-0-2---2--2----2---2-2---2-|

  smile? Why do we put on the mask of happiness
  D5
|---------------------------------------------|
|---------------------------------------------|
|---------------------------------------------|
|-0-0-0-0-2---2--2----2---------2-----2-2-2-2-|
|-0-0-0-0-2---2--2----2---2-2---2-----2-2-2-2-|
|-0-0-0-0-2---2--2----2---2-2---2-----2-2-2-2-|

Outro:
  F#5(9)              F#m
|---------------------------------------|
|---------------------------------------|
|---------------------------------------|
|-6-6---6-6---6-6-0---7-7---7-7---7-7-0-|
|-4-4---4-4---4-4-0---4-4---4-4---4-4-0-|
|-4-4---4-4---4-4-0---4-4---4-4---4-4-0-|

  F#5(9)              F#5
|--------------------------------------------|
|--------------------------------------------|
|--------------------------------------------|
|-6-6---6-6---6-6-0---4-4---4-4--------------|
|-4-4---4-4---4-4-0---4-4---4-4--------------|
|-4-4---4-4---4-4-0---4-4---4-4--------------|
                             (HOLD)
Comments