Remnant - Cuts And Bruises Chords & Tabs

 

Cuts And Bruises Chords & Tabs

Remnant Chords & Tabs

Version: 1 Type: Tab 0 ratings
1 star 2 stars 3 stars 4 stars 5 stars
comments

Cuts And Bruises Tab

   
Song Title: Cuts And Bruises
Artist: Remnant
Album: Mask Of Happiness
Tabbed by: T. Maxwell (timmax9@hotmail.com)
DROPPED-D TUNING: D-A-D-G-B-E

SIGNS:
h: Hammer-on
p: Pick-up
(#): Ghost note
X: Mute String
/: Slide Down
\: Slide Up
P.M.: Palm Mute; ..: Carrying on palm mute
(H): Hold
v~: Vibrato
~: Hit once and fade out
h.: Harmonic

CHORDS:
Csus2: X35533			F(9): 335533
Am: 7-7-10-X-X-X		C5: X355XX
F5(9): 335XXX			A5(9): 779XXX
A5: 777XXX			C/B: 9-10-X-X-X-X
C5: 10-10-10-12-X-X		F5: 333XXX

Intro: [Clean gtr. w/rotary speaker)  
  Csus2     F(9)       Am                              F(9)
|--------------------|-------------------------------------------|
|-------3-------3----|--------------------------------------3----|
|----5--5---------5--|----------------------------------5--------|
|---5-5-5----(5)---5-|-----9h10-(10)-p9---9---10p9-9---5--5------|
|-3------------------|------------------8---------8--------------|
|-----------3--------|-/7-----------------------------3----------| 
                                                  (Figure 1)

Verse 1: (Figure 1)
Csus2                     F(9)                         
    You held your head up higher, 
                     Am                  F(9)
but you said its got nothing, nothing to do with you
Csus2                    F(9)      Am                 F(9)
    As you draw from the fire, the coldness starts to come to you
                 [Break:] Csus2		F(9)		Am		F(9)
So you lay down with cuts and bruises

Verse 2: (Figure 1)
Csus2                          F(9)
    You left your time for the buyer, 
    Am                          F(9)
you sold it all so you couldn't use it anymore
Csus2                 F(9)                   Am             F(9)
    Your strength had expired, the label was marked so long before
          (Figure 2)
So you lay down with cuts and (bruises)
  
  [Heavy distortion] 
  F5(9)             
||------------------|
||------------------|
||------------------|
||-X-5-5---------5/-|
||-X-3-3---3-3---3/-|
||-X-3-3---3-3---3/-| (Figure 2)


Chorus: [heavy distortion]
             You were hurt so much before
  C5       P.M..      F5(9)  P.M..
|----------------------------------------|
|----------------------------------------|
|-5---5-5-5-------5----------------------|
|-5---5-5-5---5-5-5---5---5-5-------5----|
|-3---3-3-3---3-3-3---3---3-3---3-3-3----|
|---------------------3---3-3---3-3-3----|

 You can hold on anymore, lying down with cuts and bruises
  A5(9) P.M..                 F5(9)  P.M..
|----------------------------------------------------------|
|----------------------------------------------------------|
|----------------------------------------------------------|
|-9---9---------9---9-9-9------5---5---------5---5-5---5---|
|-7---7---7-7---7---7-7-7------3-3-3---3-3---3---3-3---3---|
|-7---7---7-7---7---7-7-7------3-3-----3-3---3---3-3---3---|

             You were hurt so much before
  C5       P.M..      F5(9)  P.M..
|----------------------------------------|
|----------------------------------------|
|-5---5-5-5-------5----------------------|
|-5---5-5-5---5-5-5---5---5-5-------5----|
|-3---3-3-3---3-3-3---3---3-3---3-3-3----|
|---------------------3---3-3---3-3-3----|

 You can hold on anymore, lying down with cuts and bruises
  A5(9) P.M..                 F5(9)  
|----------------------------------------------------------|
|----------------------------------------------------------|
|----------------------------------------------------------|
|-9---9---------9---9-9-9------5---5---5-5---5---5-5---5---|
|-7---7---7-7---7---7-7-7------3-3-3---3-3---3---3-3---3---|
|-7---7---7-7---7---7-7-7------3-3-----3-3---3---3-3---3---|

Bridge:
            Out of you body, you can still feel the 
  A5         C5/B      C5          F5
|--------------------------------------------------|
|--------------------------------------------------|
|--------------------------------------------------|
|-7---7-7--------------10-10-10---10\3-3(H)--------|
|-7---7-7---7/10-10-10-10-10-10---10\3-3(H)--------|
|-7---7-7---7/9--9--9--10-10-10---10\3-3(H)--------|
[ Tab from: http://www.guitartabs.cc/tabs/r/remnant/cuts_and_bruises_tab.html ]
  pain,    your sin starts to grab you over again
  A5         C5/B      C5          F5
|--------------------------------------------------|
|--------------------------------------------------|
|--------------------------------------------------|
|-7---7-7--------------10-10-10---10\3-3(H)--------|
|-7---7-7---7/10-10-10-10-10-10---10\3-3(H)--------|
|-7---7-7---7/9--9--9--10-10-10---10\3-3(H)--------|

                 lying down,         with cuts and bruises
  A5         C5/B      C5                 F5
|---------------------------------------------------------------|
|---------------------------------------------------------------|
|-------------------------12-12-12-12/14------------------------|
|-7---7-7--------------10-10-10-10--------3---3---3-5---5-------|
|-7---7-7---7/10-10-10-10-10-10-10--------3---3---3-3---3---12\-|
|-7---7-7---7/9--9--9--10-10-10-10--------3---3---3-3---3-------|

Guitar Solo: [Heavy distortion w/delay]
  C5                          F5(9)
|---------------------------------------------------|
|---------------------------------------------------|
|-4b-(4)----------------------4b-(4)----------------|
|------5---3-5b--------------------5---3-5b---------|
|---------------3h5p3-----------------------3-5-3v~-|
|---------------------5-3h5-------------------------|

  A5(9)          F5(9)
|-----------------------------------------------|
|-----------------------------------------------|
|-4-5---5/7-5---/14-12-10---9h10p10-------------|
|-----------------------------------10h12p10v~--|
|-----------------------------------------------|
|-----------------------------------------------|

  C5                                    F5(9)
|-------------15-15-------15------------------------15-15-------15---|
|-12-13-12h13-------12-13----13-12h13---12-13-12h13-------12-12------|
|--------------------------------------------------------------------|
|--------------------------------------------------------------------|
|--------------------------------------------------------------------|
|--------------------------------------------------------------------|

  Am                       F5(9)
|-15-15-15---13-13-13-12---10-10-10-12-12-12-13---13-12h13-15\-|
|-13-13-13---13-13-13-14---13-13-13-13-13-13-13----------------|
|--------------------------------------------------------------|
|--------------------------------------------------------------|
|--------------------------------------------------------------|
|--------------------------------------------------------------|

Chorus:
You were hurt so much before
  C5       P.M..      F5(9)  P.M..
|----------------------------------------|
|----------------------------------------|
|-5---5-5-5-------5----------------------|
|-5---5-5-5---5-5-5---5---5-5-------5----|
|-3---3-3-3---3-3-3---3---3-3---3-3-3----|
|---------------------3---3-3---3-3-3----|

  You can hold on anymore, lying down with cuts and bruises
  A5(9) P.M..                 F5(9)  P.M..
|----------------------------------------------------------|
|----------------------------------------------------------|
|----------------------------------------------------------|
|-9---9---------9---9-9-9------5---5---------5---5-5---5---|
|-7---7---7-7---7---7-7-7------3-3-3---3-3---3---3-3---3---|
|-7---7---7-7---7---7-7-7------3-3-----3-3---3---3-3---3---|

     Jesus opened the door, but you were 
  C5                  F5(9)
|----------------------------------------|
|----------------------------------------|
|-5---5-5-5---5-5-5----------------------|
|-5---5-5-5---5-5-5---5---5-5---5-5-5----|
|-3---3-3-3---3-3-3---3---3-3---3-3-3----|
|---------------------3---3-3---3-3-3----|

 gone before               He could heal all of your pain
  A5(9)                        F5(9)     P.M..
|----------------------------------------------------------|
|----------------------------------------------------------|
|----------------------------------------------------------|
|-9---9---7-7---9---9-9-9------5---5---5-5-------5-5---5~--|
|-7---7---7-7---7---7-7-7------3-3-3---3-3-3-3---3-3---3~--|
|-7---7---7-7---7---7-7-7------3-3-----3-3-3-3---3-3---3~--| (fade out)

Outro: (Figure 1) [Clean gtr. w/ rotary speaker]
Csus2                F(9)
    Jesus Christ has spoken to you,
                     Am                  F(9) 
but you said its got nothing, nothing to do with you
Csus2                F(9)
    Jesus Christ has given you truth
                Am               F(9)      /        /~
But you gave no ear again, lying down with cuts and bruises
Comments