Reminition - Fr Chords & Tabs

 

Fr Chords & Tabs

Reminition Chords & Tabs

Version: 1 Type: Tab 0 ratings
1 star 2 stars 3 stars 4 stars 5 stars
comments

Fr Tab

song: fr33
artist: reminition
email: reminition@hotmail.com

Intro/Inter

e|----------------------------------------------------------------|
b|----------------------------------------------------------------|
g|----------------------------------------------------------------|
d|------4---4---4-------------------------------------------------|
a|--2-2---2---2---2------4---4---4--------6---6---6--------2---2--|
e|-------------------2-2---2---2---2--4-4---4---4---4--0-0---0----|

Verse
[ Tab from: http://www.guitartabs.cc/tabs/r/reminition/fr_tab.html ]
e|--------------------------------------|
b|--------------------------------------|
g|--x-x-4-4-----------------------------|
d|--x-x-4-4--x-x-4-4--x-x-6-6--x-x-2-2--|
a|--x-x-2-2--x-x-4-4--x-x-6-6--x-x-2-2--|
e|-----------x-x-2-2--x-x-4-4--x-x-0-0--|

Chorus

e|---------------------------------------|
b|---------------------------------------|
g|--4-4-4-x-x----------------------------|
d|--4-4-4-x-x--4-4-4--6-6-6--x-x--2-2-2--|
a|--2-2-2-x-x--4-4-4--6-6-6--x-x--2-2-2--|
e|-------------2-2-2--4-4-4--x-x--0-0-0--|

Intro x2
Verse x4
Chorus x4
Verse x4
Chorus x4
Verse x4
Chorus x4
Inter x2
Chorus x8
Comments