Remembering Never - Incisions Chords & Tabs

 

Incisions Chords & Tabs

Remembering Never Chords & Tabs

Version: 1 Type: Tab 0 ratings
1 star 2 stars 3 stars 4 stars 5 stars
comments

Incisions Tab

   
Band - Remembering Never
Song - Incisions
Tuning - B flat (A sharp)
Bb,F,Bb,Eb,G,C
Tabbed by Brendon Keye...dead_in__magazines@hotmail.com

Some of the pull-off parts may not be right, but they sound close,
they have some sorta effect pedal to make them sound like they do.
Enjoy!


|-1/-8p6p5----------------------|
|---------8p6p5-----------------|
|-------------------------------|
|-------------------------------|
|---------------2222223311111-1-|
|---------------2222223311111-1-|


|-----------------------------------14p12p11-----------------12*\-|
|-------------------------------------------14p12p11--------------|
|---------------------------------------------------14p12p11------|
|-----------------------------------------------------------------|
|--0-0000000-3p0-1p0-3p0-2p0-000000-------------------------------|
|--0-0000000-3p0-1p0-3p0-2p0-000000-------------------------------|
   . ....... . . . . . . . . ......               

|---------------------------------------------|
|---------------------------------------------|
|-14141414141414141414141414---10101010101010-|
|-12121212121212121212121212---88888888888888-|
|-12121212121212121212121212---88888888888888-|
|-12121212121212121212121212---88888888888888-|


|----------------------------------------------------------------|
|--------------------------------888---------------------------8-|
|--------------------------------555---------------------------5-|
|----------------------------------------------------------------|
|-00-0-0-0-0-0-0-0-0-00-0-0-0-0-0---00-0-0-0-0-0-0-00-0-0-0-0-0--|
|-00-0-0-0-0-0-0-0-0-00-0-0-0-0-0---00-0-0-0-0-0-0-00-0-0-0-0-0--|
  .. . . . . . . . . .. . . . . .   .. . . . . . . .. . . . . .
[ Tab from: http://www.guitartabs.cc/tabs/r/remembering_never/incisions_tab.html ]
|----------------------------------------------------------------|
|--------------------------------888-888-888-------------------8-|
|--------------------------------555-555-555-------------------5-|
|----------------------------------------------------------------|
|-00-0-0-0-0-0-0-0-0-00-0-0-0-0-0---0---0---00-0-0-0-0-0-0-00-0--|
|-00-0-0-0-0-0-0-0-0-00-0-0-0-0-0---0---0---00-0-0-0-0-0-0-00-0--|
  .. . . . . . . . . .. . . . . .   .   .   .. . . . . . . .. .

|--------------------------------------|
|--------------------------------------|
|--------------------------------------|
|--3-1~----2-2-2-2-2-2-2-2-3-3-3-----3-|
|--3-1~---------------------------00-3-|
|--3-1~--0------------------------00-3-|
         .                        ..

|----------------------------|-------------|
|----------------------------|-------------|
|--------3----3----3---------|-------------|
|-3-1--2--2-2--2-2--2-3-1-00-|-22-0h2-2-22-|
|-3-1-----------------3-1-00-|-22-0h2-2-22-|
|-3-1-0-0--0-0--0-0---3-1-00-|-22-0h2-2-22-|
      . .  . .  . .       ..


|---------------------------------------------|
|---------------------------------------------|
|---------------------------------------------|
|---------------------------------22-0h2-2-22-|
|-000-000-000-000-000-000-000-000-22-0h2-2-22-|
|-000-000-000-000-000-000-000-000-22-0h2-2-22-|
  ... ... ... ... ... ... ... ...

|-----------------------------------|
|-----------------------------------|
|-----------------------------------|
|-----------------------------------|
|-000-000-000----232--000-000-000-0-|
|-000-000-000-023---3-000-000-000-0-|
  ... ... ...         ... ... ... .

|------------------------------|
|------------------------------|
|-1414141414141414141414141414-|Only Clean part
|-1212121212121212121212121212-|in the song.
|-1212121212121212121212121212-|
|-1212121212121212121212121212-|


The order isn't hard, i'm sure if you listen to 
Remembering Never, you can figure it out.lol.




Comments