Remember Maine - Forever Ended Today Chords & Tabs

 

Forever Ended Today Chords & Tabs

Remember Maine Chords & Tabs

Version: 1 Type: Tab 0 ratings
1 star 2 stars 3 stars 4 stars 5 stars
comments

Forever Ended Today Tab

This is my first tab so i dont know.... but check it out since no one has it

e|----------------|------------------|--------------------------------------|
B|----7---8---7---|------5----7---5--|-----3------------------3-----5----3--|
G|---0--0---0---0-|----0---0----0---0|---0---0------------0------0-----0---0|
D|----------------|------------------|--------------------------------------|
A|-7--------------|--5---------------|-3------------3---3-------------------|
E|----------------|------------------|--------------------------------------|

[ Tab from: http://www.guitartabs.cc/tabs/r/remember_maine/forever_ended_today_tab.html ]
e|-----------------|--------------------|-----------------------------------|
B|----7---8---7----|-----5---7-0-0h7-0--|-----3-----------3-----------------|
G|--0---0---0---0--|---0---0------------|---0----0-----0----0---------------|
D|-----------------|--------------------|-----------------------------------|
A|-7---------------|-5------------------|-3--------3-3----------------------|
E|-----------------|--------------------|-----------------------------------|

The Strumming part... lol


e|-x-x------x---x-x-x-x-x------x---x-x-x-x-x-----0----0-0-0-0-0-----|
B|-7-7------3---3-3-3-3-3------3---3-3-3-3-3-----3----3-3-3-3-3-----|
G|-0-0------0---0-0-0-0-0------0---0-0-0-0-0-----2----2-2-2-2-2-----|
D|-0-0------0---0-0-0-0-0------0---0-0-0-0-0-----0----0-0-0-0-0-----|
A|-7-7------3---3-3-3-3-3------0---0-0-0-0-0-----0----0-0-0-0-0-----|
E|-0-0------0---0-0-0-0-0------3---3-3-3-3-3-----x----x-x-x-x-x-----|


Just repeat that same pattern but different rhythms..

listen to the song for help.. it really will help.

Any questions pertaining the tab email me at FthePo9ers@hotmail.com
                                            (Fuck the Police)

if your still confused on how to play, feel free to email me
Comments